Enviar cifraEntrar

Odisséia Na Babilônia

Ponto De Equilibrio

Acordes: Principal
reproducciones 211
Tono: G
Intro: Em  Am (Riff1 e Riff2 em seguida)

Riff 1


E|------------------10---------------------------|
B|--1/8--8---8-8h10-10b12-10-8---8---8---7-------|
G|--2/9----9-------------------9---9-----7-------|
D|---------------------------------------7-------|
A|-----------------------------------------------|
E|-----------------------------------------------|


E|------------------10---------10----------------|
B|--1/8--8---8-8h10-10b12-10-8-10b12-------------|
G|--2/9----9-------------------------------------|
D|-----------------------------------------------|
A|-----------------------------------------------|
E|-----------------------------------------------|


Riff 2


E|------------------------------------------------------------|
B|------------------------------------------------------------|
G|--7-9-9-9---------5h7-9-9-9---------------5h7-9-9-9---------|
D|----------5h7-5h7-----------5-5-5-5h7-5h7-----------5-5-5---|
A|------------------------------------------------------------|
E|------------------------------------------------------------|


E|-----------------------------------------------|
B|-----------------------------------------------|
G|----------5h7-9-9-9----------------------------|
D|--5h7-5h7--------------------------------------|
A|-----------------------------------------------|
E|-----------------------------------------------|


(Prossegue tocando Riff 2 ate a palavra "conquistar")

 Em            Am        Em               Am
Não ,não senhor burguês, o que eu preciso ter
Em                Am            Em                Am
Ninguém nunca vai me dar, oh oh terei de conquistar
Em             Am     Em                 Am
Eu quero a paz de jah no coração de meus irmãos
Em                  Am     Em                  Am
Eu quero plantar e colher, sorrir quando o dia nascer!
Em             Am      Em             Am
Graças a jah rastafari ninguém vai me comprar
Em             Am      Em         Am
Não vim pra me curvar, eu vim pra conquistar
Em             Am            Em         Am
Não viemos nos curvar oh, oh nós viemos conquistar

(Riff 2)

Em          Am         Em            Am
Odisséia na babilônia, dia após dia lutando
Em          Am         Em              Am
Odisséia na babilônia, as coisas estão mudando
Em          Am         Em            Am
Odisséia na babilônia, todos filhos de jah
Em          Am         Em              Am
Odisséia na babilônia, os rastas tem que se juntar
Em          Am        Em          Am         Em        Am
Se juntar, se juntar, se juntar, se juntar , se juntar

 Em            Am        Em               Am
Não ,não senhor burguês, o que eu preciso ter
Em                Am            Em                Am
Ninguém nunca vai me dar, oh oh terei de conquistar
Em             Am     Em                 Am
Eu quero a paz de jah no coração de meus irmãos
Em                  Am     Em                  Am
Eu quero plantar e colher, sorrir quando o dia nascer!
Em             Am       Em             Am
Graças a haile selassie ninguém vai me comprar
Em             Am      Em         Am
Não vim pra me curvar, eu vim pra conquistar
Em             Am            Em         Am
Não viemos nos curvar oh, oh nós viemos conquistar

(Riff 2)

Em          Am         Em            Am
Odisséia na babilônia, dia após dia lutando
Em          Am         Em              Am
Odisséia na babilônia, as coisas estão mudando
Em          Am         Em            Am
Odisséia na babilônia, todos filhos de jah
Em          Am         Em              Am
Odisséia na babilônia, os rastas tem que levantar
Em         Am       Em          Am      Em       Am
Levantar, levantar, levantar, levantar, levantar
Em           Am         Em           Am
Rastafari na babilônia, dreadlock na babilônia
Em      Am Em      Am Em      Am Em      Am
Dreadlock, rastafari, dreadlock, rastafari

( Em  Am )
Amando jah, eu e eu vou prosperar
Que sua luz e sua prosperidade esteja sempre no ar
Peço também que proteja eu e todos os meus companheiros
Que o seu amor e sua prosperidade esteja sempre com eles
Por causa da força do altíssimo jah rastafari, eu e eu renuncio a tudo que tenho jah rastafari, haile selassie...

[Finaliza com Riff 2]
  • 1
  • 2
  • 3
  • 4
  • 5
  • 6
  • 7
  • 8
  • 9
  • 10
  • 11
  • 12
    Acordes para:
      Composición: Ras AndréColaboración y revision:

      0 comentarios

        mostrar mas comentarios

        ¿Conseguiste tocar?

        8tocaron0aún no

        ¡Grave un vídeo tocando Odisséia Na Babilônia y envie para nosotros!

        00:00 / 00:00
        outros vídeos desta música
        repetirqualidadeautomática
        • automática
        Outro vídeos desta música
          00:00 / 00:00
          automática
          • automática
          Acordes para:guitarra
          dificuldadreproduccionescontribuciones
          1 versión de Contrabajoreproduccionescontribuciones
          cerrarplay/pause subir/bajar velocidad
            acordes
            cerrar
            OK
            Feedback