Cifra Club

Espiral

Porter

Cifrado: Principal (guitarra y guitarra eléctrica)
tono: B
Intro
e--------------------|
B--------------------|
G--------------------|
D--------------------|
A----------7---------|
E-3----------------7-|

*Esto haganlo kon un efekto k tenga eco,no lo
pongo por k no me acuerdo kual es.

Parte del intro/Verso
e--------------------------------------------------------------|
B-6h7-7-7-7-7--6-6-6-6--6h7-7-7-7-7--7h9-9-9-9--7-7-7-7--6-6-6-|
G--------------------------------------------------------------|
D--------------------------------------------------------------|
A--------------------------------------------------------------|
E--------------------------------------------------------------|

--------------------------|
-2-2-2/6--6p7-6p7-6p7-6p7-|
--------------------------|
--------------------------|
--------------------------|
--------------------------|

*Verso

Parte donde dice:Hu Hu Hu
e-4-4--4-4--4-4--4-4-|
B-4-4--6-6--4-4--6-6-|
G-6-6--6-6--6-6--6-6-|
D-6-6--6-6--6-6--6-6-|
A-4-4--4-4--4-4--4-4-|
E-4-4--4-4--4-4--4-4-|

* Verso

   D#   Bmb
e--------------|
B--------------|
G-4-4h6-4-4-3--| Y empiezo a pensar........
D--------------|
A--------------|
E--------------|

   D#   Bmb
e-------------|
B-6-6h8-6-6-5-|
G-------------|  Sin ti ya no hay mas.......
D-------------|
A-------------|
E-------------|

 D#              Bmb          F#  (pausa)
Que empieze el proceso circular

Bmb   C#  F#
Ay  ay ay ay
D#  Bmb C# F#
Ay  ay ay ay

e-----7--8-|
B-8--------|
G----------|  ahy calculenle cuantas vecez
D----------|
A----------|
E----------|

*Luego empieza guitarra acustica
 C#  G#  B  F#  C#  G#  B

 F#        C#          G#       B     F#   C#   G#   B
Creo que ahora si me estoy volviendo loco loco loco loco

e-11-11-11-11-11---8-8-8-8-8-|
B----------------------------|
G----------------------------|  Hay tambien calcúlenle
D----------------------------|
A----------------------------|
E----------------------------|
00:00 / 00:00
Otros videos de esta canción
Repetir
Otros videos de esta canción
Compositor no encontrado.
571 vistas
    • ½ Tono
    • A
    • Bb
    • B
    • C
    • Db
    • D
    • Eb
    • E
    • F
    • F#
    • G
    • Ab
  • Agregar a la lista

    0 comentarios

    Ver todos los comentarios

    ¿Lograste tocar?

    0 Tocaron 0 Aún no

    ¡Graba un video tocando Espiral y envíanoslo!

    00:00 / 00:00
    OK