Cifra Club

Girl

Porter

Cifrado: Principal (guitarra y guitarra eléctrica)
tono: E
INTRO:
e||-------------------------------------------------------
B||-------------------------------------------------------
G||-------------------------------------------------------
D||-------3-----3-------3-----3-------3-----3------3-----3-
A||----------4-------------4-------------4------------4----
E||--2-2------------2-2----------2-2-----------2-2---------

e||------------------------------------------------
B||------------------------------------------------
G||------------------------------------------------
D||--6-6-6-6-6-6/8-8-8-8-8/6-6-6-6-6-6/8-8-8-8-8---  X2
A||--4-4-4-4-4-4/6-6-6-6-6/4-4-4-4-4-4/6-6-6-6-6---
E||------------------------------------------------

    RIFF: 2
e||----------------------------
B||----------------------------
G||----------------------------
D||--6-6-6-6-6-6-6-6-6-6-6/8-8-
A||--4-4-4-4-4-4-4-4-4-4-4/6-6-
E||----------------------------

e||----------------------------------
B||----------------------------------
G||----------------------------------
D||8-8-8-8-8-8-8-8-8/10-10-10-10-10-10
A||6-6-6-6-6-6-6-6-6/8—-8--8--8--8--8-
E||----------------------------------


e||--------------------------------------------------------------
B||--------------------------------------------------------------
G||--------------------------------------------------------------
D||-10-10-10-10-10/11-11-11-11-11-11-11-11-11-11-----------------
A||-8--8--8--8—--8/9--9--9--9--9--9--9--9--9--9------------------
E||--------------------------------------------------------------





RIFF: 1
My sleeping beauty
Im right beside you you you....

INTERMEDIO
e||-------------------------------------------------------
B||-------------------------------------------------------
G||-------------------------------------------------------
D||-------3-----3-------3-----3-------3-----3------3-----3-
A||----------4-------------4-------------4------------4----
E||--2-2------------2-2----------2-2-----------2-2---------




e||--------------------------------------------------------------
B||--------------------------------------------------------------
G||-------------------------------------------------------------- X2
D||--6-6-6-6-6-6/8-8-8-8-8-8/10-10-10-10-10-10/11-11-11-11-11-11-
A||--4-4-4-4-4-4/6-6-6-6-6-6/8--8--8--8--8—--8/9--9--9--9--9--9--
E||--------------------------------------------------------------
         G  O ESTA PARTE 2 VESES LO DE ARIBA G  O UNA VEZ.


RIFF: 2

e||--------------------------------------------------------------
B||--------------------------------------------------------------
G||--------------------------------------------------------------
D||--6-6-6-6-6-6-6-6-6-6-6/8-8-8-8-8-8-8-8-8-8-8/10-10-10-10-10-10
A||--4-4-4-4-4-4-4-4-4-4-4/6-6-6-6-6-6-6-6-6-6-6/8—-8--8--8--8--8-
E||--------------------------------------------------------------

e||--------------------------------------------------------------
B||--------------------------------------------------------------
G||--------------------------------------------------------------
D||-10-10-10-10-10/11-11-11-11-11-11-11-11-11-11----------------- x4
A||-8--8--8--8—--8/9--9--9--9--9--9--9--9--9--9------------------
E||--------------------------------------------------------------
         VA 4 VESES JUNTO CON A  LETRA DE ABAJO
Feeling your heart beat
Are you now my girl
Day on the street yeah..
As long as i live
wake up and tell me
what is what you dream
feeling useless, you are my only girl

INTERMEDIO: RIFF:1 G  O UNA VEZ

RIFF: 1X4
Six months and you are still my sleeping beauty

You don´t talk
but you are a miracle
so peacefull like
a beautiful angel
you are my only love

e||--------------------------------------------------------------
B||--------------------------------------------------------------
G||-------------------------------------------------------------- X2
D||--6-6-6-6-6-6/8-8-8-8-8-8/10-10-10-10-10-10/11-11-11-11-11-11-
A||--4-4-4-4-4-4/6-6-6-6-6-6/8--8--8--8--8—--8/9--9--9--9--9--9--
E||--------------------------------------------------------------


RIFF: 2
||--------------------------------------------------------------
B||--------------------------------------------------------------
G||--------------------------------------------------------------
D||--6-6-6-6-6-6-6-6-6-6-6/8-8-8-8-8-8-8-8-8-8-8/10-10-10-10-10-10
A||--4-4-4-4-4-4-4-4-4-4-4/6-6-6-6-6-6-6-6-6-6-6/8—-8--8--8--8--8-
E||--------------------------------------------------------------

e||--------------------------------------------------------------
B||--------------------------------------------------------------
G||--------------------------------------------------------------
D||-10-10-10-10-10/11-11-11-11-11-11-11-11-11-11----------------- x4
A||-8--8--8--8—--8/9--9--9--9--9--9--9--9--9--9------------------
E||--------------------------------------------------------------
             VA 4 VESES JUNTO CON A  LETRA DE ABAJO

Feeling your heart beat
Are you now my girl
Day on the street yeah..
As long as i live
wake up and tell me
what is what you dream
feeling useless, you are my only girl

   este es una de la ultima parte
e||-------------------------------------------------------------
B||-------------------------------------------------------------
G||-------------------------------------------------------------
D||-11-11-11-11-11-10-10-10-10-10-6-6-6-6-6-6-6-6-6-6-----------
A||-9--9--9--9—-9--8--8--8--8--8--4-4-4-4-4-4-4-4-4-4-9-9-9-9-9-
E||---------------------------------------------------7-7-7-7-7-

e||--------------------------------
B||--------------------------------
G||--------------------------------
D||-9-9-9-9-9-6-6-6-6-6-6-6-6-6-6—- x4
A||-7-7-7-7-7-4-4—4-4-4-4-4-4-4-4--
E||--------------------------------

    Aquí va lo ultimo
e||-------------------------------------------------------------
B||-------------------------------------------------------------
G||-------------------------------------------------------------
D||-6-6-6-6-6-6-6-6-6-6-9-9-9-9-9-9-9-9-9-9-8-8-8-8-8-9-9-9-9-9- x4
A||-4-4-4-4-4-4-4—4-4-4-7-7-7-7-7-7-7-7-7-7-6-6-6-6-6-7-7-7-7-7-
E||-------------------------------------------------------------

       TEREA  CON ESTO
e||-----------------
B||-----------------
G||-----------------
D||-6---------------
A||-4------—--------
E||-----------------
00:00 / 00:00
Otros videos de esta canción
Repetir
Otros videos de esta canción
Composición de Porter
7 vistas
    • ½ Tono
    • A
    • Bb
    • B
    • C
    • Db
    • D
    • Eb
    • E
    • F
    • F#
    • G
    • Ab
  • Agregar a la lista

    0 comentarios

    Ver todos los comentarios

    ¿Lograste tocar?

    0 Tocaron 0 Aún no

    ¡Graba un video tocando Girl y envíanoslo!

    00:00 / 00:00
    OK