Cifra Club

Himno Eterno

Porter

Cifrado: Principal (guitarra y guitarra eléctrica)
tono: B
Intro Piano: B | % - E|(x8)


Riff (el original es en bajo, pero éste lo hice para guitarra):

E|--------------------------------------------------|
B|--------------------------------------------------|
G|--------------------------------------------------|
D|--------------------------------------------------|
A|--9-6(x6)---6-4-6--4-2-4----------6---------------|
E|-------------------------7-6(x5)-7--4-6-7--6-7-9--|

E|--------------------------------------------------|
B|--------------------------------------------------|
G|--------------------------------------------------|
D|--------------------------------------------------|
A|---------------------------6-4(x6)4-6-4--6s9-6----|
E|-4-2(x5)-4-6---6-4(x5)-6-7------------------------|


    B
Es raro, no entiendo
Por que ya no estas aquí
       F#   G#m
Ya no eres físico, nunca pensé
             F#      B
Que no estarías aquí

B  algo
Tuviera el poder de cambiar aquí
Es algo ilógico
Que no supieras lo que hiciste en mi

E
Hoy quiero
Vivir sin darme cuenta
      G#m
Te robaste un día mis ojos
      E
Me esta, chillando el alma
        G#m
Quiero verte de cerca
Quiero verte de cerca

E
Hoy quiero
Vivir sin darme cuenta
      G#m
Te robaste un día mis ojos
      E
Me esta, chillando el alma
        G#m
Quiero verte de cerca
Quiero verte de cerca

PUENTE: G#m

E|--4-------4------|
B|---4-4-----4-4---|
G|----4-------4----| X8
D|-----------------|
A|-----------------|
E|-----------------|

Es raro, no entiendo
Por que ya no estas aquí
Ya no eres físico, nunca pensé
Que no estarías aquí

D#m     E F#
B  algo
            B
Tuviera el poder de cambiar aquí
F#      G#m
Es algo ilógico
           F#                      B     E
Que no supieras lo que hiciste en mi


Hoy quiero
Vivir sin darme cuenta
Te robaste un día mis ojos
Me esta, chillando el alma
Quiero verte de cerca
Quiero verte de cerca

Hoy quiero
Vivir sin darme cuenta
Te robaste un día mis ojos
Me esta, chillando el alma
Quiero verte de cerca
Quiero verte de cerca

FINAL: G#m

E|----------------|
B|----------------|
G|----13----------|
D|-------11-13-11-|
A|----------------|
E|----------------|
00:00 / 00:00
Otros videos de esta canción
Repetir
Otros videos de esta canción
Composición de Porter
19 vistas
    • ½ Tono
    • A
    • Bb
    • B
    • C
    • Db
    • D
    • Eb
    • E
    • F
    • F#
    • G
    • Ab
  • Agregar a la lista

    0 comentarios

    Ver todos los comentarios

    ¿Lograste tocar?

    0 Tocaron 0 Aún no

    ¡Graba un video tocando Himno Eterno y envíanoslo!

    00:00 / 00:00
    OK