Cifra Club

Depois da Curva (parte do HG)

Pouca Vogal

Cifrado: Principal (guitarra y guitarra eléctrica)
tono: G
Intro 4x: G

G          C/G
Amanhã, talvez
          Em                C/E     G5/F#
esse vendaval faça algum senti ---- do
G             C
dá pra se dizer
              Em          C/E    G5/F#
qualquer coisa sobre todo mun --- do
Em           D
por hoje é só

E|------------------------|
B|------------------------|
G|------------------------|
D|------------------------|
A|-0-1--------------------|
E|------------------------|

   C9           G4/C
   vou deixar passar a ventania

Em          D
talvez amanhã

E|------------------------|
B|------------------------|
G|------------------------|
D|------------------------|
A|-0-1--------------------|
E|------------------------|

    C9       G4/C
   vento,      vela e velocidade

Refrão:
Em    C/A
mar azul
Em    C/E  G5/F#  G6 A6  G     G/F
céu azul   sem    nu-----vens
      Em7   C/E  G5/F#  G6 A6
logo ali… depois da     curva
G          G5/F  Em7   C/E  G5/F#  G6 A6
ali, logo ali,  ali… depois da     curva

Solo 2x: ( G )

G           C
amanhã talvez
        Em              C/E   G5/F#
esse temporal saia do cami --- nho
G            C
dá pra escrever
           Em                C/E     G5/F#
o papel aceita toda qualquer coi --- sa

Em           D
por hoje é só

E|------------------------|
B|------------------------|
G|------------------------|
D|------------------------|
A|-0-1--------------------|
E|------------------------|

 C9          G4/C
   vou deixar passar a ventania

Em          D
talvez amanhã

E|------------------------|
B|------------------------|
G|------------------------|
D|------------------------|
A|-0-1--------------------|
E|------------------------|

C9        G4/C
    Água   pura e toda verdade

Refrão:
Em    C/A
mar azul
Em    C/E  G5/F#  G6 A6  G     G/F
céu azul   sem    nu-----vens
      Em7   C/E  G5/F#  G6 A6
logo ali… depois da     curva
G          G/F  Em7   C/E  G5/F#  G6 A6
ali, logo ali, ali… depois da     curva

Solo 2x: ( G )

 G        G5/F  Em7   C/E  G5/F#  G6 A6
Ali logo ali , ali… depois da     curva
G          G5/F   Em7            C/E  G5/F#  G6 A6     G
ali, logo ali, eu vi, eu vim, venci    a     curva
00:00 / 00:00
Otros videos de esta canción
Repetir
Otros videos de esta canción
Compositor no encontrado.
Colaboración y revisión:
  • Guilherme Silva
35 vistas
    • ½ Tono
    • A
    • Bb
    • B
    • C
    • Db
    • D
    • Eb
    • E
    • F
    • F#
    • G
    • Ab
  • Agregar a la lista

    0 comentarios

    Ver todos los comentarios

    ¿Lograste tocar?

    0 Tocaron 0 Aún no

    ¡Graba un video tocando Depois da Curva (parte do HG) y envíanoslo!

    00:00 / 00:00
    OK