Cifra Club

Música Inédita

Pouca Vogal

Cifrado: Principal (guitarra y guitarra eléctrica)
tono: G
Intro: G  G4/9
Riff Principal:
E|---------------------
B|---------------------
G|-------7------7-----0
D|--7h9-----7h9---7h9--  (2x)
A|---------------------
E|---------------------

Riff 2:
E|-----------------------------
B|----10---8----7---5---3/5-7--
G|--0----0----0---0---0--------  (3x)
D|-----------------------------|
A|-----------------------------
E|-----------------------------

Riff 3:
E|-------------------------------
B|-------------7-----------------
G|--9p7----------9------------0--
D|-------9p7--------7/9--7/9-----
A|-------------------------------
E|-------------------------------

G                 G4/9
Não faço nada que alguem nao tenha feito não
G              D/F#                         Em
não falo nada que alguem não tenha dito então
            C                         D
nao penso nada, nosso futuro é imprevisão
     C  D/F#    G
Alguem me de a mão

G                 G4/9
Nessa calçada vejo que os anos vão chegar
G              D/F#                         Em
cada pegada me mostra um jeito de encontrar
              C                    D
todo esse nada, o medo de se machucar
    C      D/F#      G
porque tudo isso então

G                 G4/9
se nao ha nada porque todos temem perder
G              D/F#                         Em
todo esse nada será vontade de viver
             C                       D
na mesma casa na mesa que reparte o pão
    C     D/F#    G
por isso tudo então

Refrão:
C    D   G    D/F#           Em        Am7  D#º
quem é voce         que se esconde
            Em        A
atras de um nome qualquer
C       D
não aparece pra mim
C   D       G    D/F#             Em      Am7  D#º
estende a mão          trazendo a chuva
          Em         A
tocando o som do trovão
C         D         C  ( G )
será que vamos saber

(Intro)

(Repete tudo)

(Refrão 2x)
00:00 / 00:00
Otros videos de esta canción
Repetir
Otros videos de esta canción
Composición de Duca Leindecker
Colaboración y revisión:
  • Cefas
  • Lucas Holz
220 vistas
    • ½ Tono
    • A
    • Bb
    • B
    • C
    • Db
    • D
    • Eb
    • E
    • F
    • F#
    • G
    • Ab
  • Agregar a la lista

    0 comentarios

    Ver todos los comentarios

    ¿Lograste tocar?

    6 Tocaron 2 Aún no

    ¡Graba un video tocando Música Inédita y envíanoslo!

    00:00 / 00:00
    OK