Cifra Club

Pinhal

Pouca Vogal

Cifrado: Principal (guitarra y guitarra eléctrica)
tono: D
(intro 2x) G D6

(primeira parte)
G                                                     D6
Foi no dia em que eles se encontraram na praia do pinhal
G                                                 D6
Que ela olhou pra ele e disse baby não me leve a mal
G                                            D6
Ele sempre foi um cara desses que estuda demais (demais)
G                                                  D6
Procurando encontrar a solução pra tudo com muita paz

(refrão)
G                D9/F#
E agora que o pinhal
Em                  A7
Não tem mais a gente lá
G                D9/F#
Eu volto pra lembrar
Em               A7
Que a gente cresceu
            D6
Na beira do mar
            G   D6
Na beira do mar

(intro 2x) G D6

(segunda parte)
G                                                          D6
Ela se formou há pouco tempo e quem tocou na formatura fui eu
G                                           D6
Ele faz meditação no parque a procura do seu eu
G                                                       D6
Quando tenho tempo dou uma passada lá só pra ver como estão
G
Se estou na zona norte pego a estrada do forte
D6
Pro meu irmão

(refrão)
G                D9/F#
E agora que o pinhal
Em                  A7
Não tem mais a gente lá
G                D9/F#
Eu volto pra lembrar
Em               A7
Que a gente cresceu

(solo)

E|----10--9--7-------------------|--10--9--7-----------------|
B|---------------10-7--7---7-----|------------10-7---8h7-----|
G|---7--7--7--7------7---7---7---|-7--7--7--7------7-----9h7-|
D|-------------------------------|---------------------------|
A|-------------------------------|---------------------------|
E|-------------------------------|---------------------------|

E|--10--9--7-----------------|--10--9--7----------------------|
B|-----------10-7--7---7-----|----------------10-10--10-10-10-|
G|-7--7--7--7------7---7---7-|-7--7--7--7---7---7---7--7--7---|
D|---------------------------|--------------------------------|
A|---------------------------|--------------------------------|
E|---------------------------|--------------------------------|

     G    D    G    D
E|-7~-|-7~-|-7~-|-7~-|
B|-8~-|-7~-|-8~-|-7~-|
G|-7~-|-7~-|-7~-|-7~-|
D|----|----|----|----|
A|----|----|----|----|
E|----|----|----|----|

(refrão)
G                D9/F#
E agora que o pinhal
Em                  A7
Não tem mais a gente lá
G                D9/F#
Eu volto pra lembrar
Em               A7
Que a gente cresceu
            D6
Na beira do mar
            G
Na beira do mar
00:00 / 00:00
Otros videos de esta canción
Repetir
Otros videos de esta canción
Composición de Cidadão Quem / Duca Leindecker
Colaboración y revisión:
470 vistas
    • ½ Tono
    • A
    • Bb
    • B
    • C
    • Db
    • D
    • Eb
    • E
    • F
    • F#
    • G
    • Ab
  • Agregar a la lista

    0 comentarios

    Ver todos los comentarios

    ¿Lograste tocar?

    23 Tocaron 0 Aún no

    ¡Graba un video tocando Pinhal y envíanoslo!

    00:00 / 00:00
    OK