Cifra Club

Somos Quem Podemos Ser

Pouca Vogal

Cifrado: Principal (guitarra y guitarra eléctrica)
tono: G (con acordes en la forma de A) Afinación: D G C F A D
[Intro]

E|-------4---4-------4-------------9-----7-----5-|
B|-----5-----------5---7-5------10-----9-----7---|
G|---6-----6-----6-----------11------9-----7-----| (2x)
D|-----------------------------------------------|
A|-0-----------0---------------------------------|
D|-------------------------0---------------------|

E|-------4---4-------4-------------9----9---------9-------|
B|-----5-----------5---7-5------10-------------10---10----|
G|---6-----6-----6-----------11------11-----11---------11-| (2x)
D|--------------------------------------------------------|
A|-0-----------0------------------------------------------|
D|-------------------------0--------------0---------------|


(Verso principal 1)


E|-------4---4-------4-----------------------------|
B|-----5-----------5---7-5-------2---2-------2-----|
G|---6-----6-----6-------------2-----------2---2---| (4x)
D|---------------------------4-----4-----4-------4-|
A|-0-----------0-----------------------------------|
D|-------------------------0-----------0-----------|

Um dia me disseram que as nuvens
Não eram de algodão
Um dia me disseram que os ventos
Às vezes erram a direção

E tudo ficou tão claro
Um intervalo na escuridão
Uma estrela de brilho raro
Um disparo para um coração

(Ponte 1)

E|-------------------------------------------------|
B|-------5-----------5-----------5-----------5-----|
G|-----6---6-------6---6-------7---7-------7---7---| (2x)
D|---6-------6---6-------6---7-------7---7-------7-|
A|-4-----------4-----------------------------------|
D|-------------------------0-----------0-----------|

A vida imita o vídeo
Garotos inventam um novo inglês
Vivendo num país sedento
Um momento de embriaguez, nós

(Refrão)

E|---------------------------------------------|
B|-------3-----------5-----------5-----------5-|
G|-----4---4-------6---6-------7---7-------4---|
D|---4-------4---6-------6---7-------7---2-----|
A|-2-----------4-------------------------------|
D|-------------------------0-----------2-------|

Somos quem podemos ser
Sonhos que podemos ter

(Base do solo 1)

E|-------4---4-------4-------------9-----7-----5-|
B|-----5-----------5---7-5------10-----9-----7---|
G|---6-----6-----6-----------11------9-----7-----|
D|-----------------------------------------------|
A|-0-----------0---------------------------------|
D|-------------------------0---------------------|

E|-------4---4-------4-------------9----9---------9-|
B|-----5-----------5---7-5------10-------------10---|
G|---6-----6-----6-----------11------11-----11------|
D|--------------------------------------------------|
A|-0-----------0------------------------------------|
D|-------------------------0--------------0---------|

(Verso principal 2)


E|-------4---4-------4-----------------------------|
B|-----5-----------5---7-5-------2---2-------2-----|
G|---6-----6-----6-------------2-----------2---2---| (4x)
D|---------------------------4-----4-----4-------4-|
A|-0-----------0-----------------------------------|
D|-------------------------0-----------0-----------|

Um dia me disseram
Quem eram os donos da situação
Sem querer eles me deram
As chaves que abrem essa prisão

E tudo ficou tão claro
O que era raro, ficou comum
Como um dia depois do outro
Como um dia, um dia comum

(Ponte 2)

E|-------------------------------------------------|
B|-------5-----------5-----------5-----------5-----|
G|-----6---6-------6---6-------7---7-------7---7---| (2x)
D|---6-------6---6-------6---7-------7---7-------7-|
A|-4-----------4-----------------------------------|
D|-------------------------0-----------0-----------|

A vida imita o vídeo
Garotos inventam um novo inglês
Vivendo num país sedento
Um momento de embriaguez, nós

(Refrão)

E|---------------------------------------------|
B|-------3-----------5-----------5-----------5-|
G|-----4---4-------6---6-------7---7-------4---|
D|---4-------4---6-------6---7-------7---2-----|
A|-2-----------4-------------------------------|
D|-------------------------0-----------2-------|

Somos quem podemos ser
Sonhos que podemos ter


(Base do solo 2)

E|-------4---4-------4-------------9-----7-----5-|
B|-----5-----------5---7-5------10-----9-----7---|
G|---6-----6-----6-----------11------9-----7-----|
D|-----------------------------------------------|
A|-0-----------0---------------------------------|
D|-------------------------0---------------------|

E|-------4---4-------4-------------9----9---------9-|
B|-----5-----------5---7-5------10-------------10---|
G|---6-----6-----6-----------11------11-----11------|
D|--------------------------------------------------|
A|-0-----------0------------------------------------|
D|-------------------------0--------------0---------|

E|---------------------------------------------|
B|-------3-----------5-----------5-----------5-|
G|-----4---4-------6---6-------7---7-------4---|
D|---4-------4---6-------6---7-------7---2-----|
A|-2-----------4-------------------------------|
D|-------------------------0-----------2-------|


(Verso principal 3)


E|-------4---------------4---------|
B|-----5---------2-----5---------2-|
G|---6---------2-----6---------2---|
D|-----------4---------------4-----|
A|-0---------------0---------------|
D|---------0---------------0-------|

Um dia me disseram que as nuvens
Não eram de algodão
Sem querer eles me deram
As chaves que abrem essa prisão

(Ponte 3)

E|-------4-----------4-----------------------------|
B|-----5---5-------5---5---------2-----------2-----|
G|---6-------6---6-------6-----2---2-------2---2---| (2x)
D|---------------------------4-------4---4-------4-|
A|-0-----------0-----------------------------------|
D|-------------------------0-----------0-----------|

Quem ocupa o trono tem culpa
Quem oculta o crime também
Quem duvida da vida tem culpa
Quem evita a dúvida também tem

(Ponte 3)

E|-------------------------------------------------|
B|-------5-----------5-----------5-----------5-----|
G|-----6---6-------6---6-------7---7-------7---7---| (2x)
D|---6-------6---6-------6---7-------7---7-------7-|
A|-4-----------4-----------------------------------|
D|-------------------------0-----------0-----------|

Mas tudo bem
Quem não tem?
É...
Tudo bem, nós

(Refrão)

E|---------------------------------------------|
B|-------3-----------5-----------5-----------5-|
G|-----4---4-------6---6-------7---7-------4---|
D|---4-------4---6-------6---7-------7---2-----|
A|-2-----------4-------------------------------|
D|-------------------------0-----------2-------|

Somos quem podemos ser
Sonhos que podemos ter
E teremos

(Final)

E|-------4-|
B|-----5---|
G|---6-----|
D|---------|
A|-0-------|
D|---------|
00:00 / 00:00
Otros videos de esta canción
Repetir
Otros videos de esta canción
Composición de Engenheiros Do Hawaii / Humberto Gessinger
Colaboración y revisión:
  • Guilherme Silva
95 vistas
    • ½ Tono
    • A
    • Bb
    • B
    • C
    • Db
    • D
    • Eb
    • E
    • F
    • F#
    • G
    • Ab
  • Agregar a la lista

    0 comentarios

    Ver todos los comentarios

    ¿Lograste tocar?

    1 Tocaron 0 Aún no

    ¡Graba un video tocando Somos Quem Podemos Ser y envíanoslo!

    00:00 / 00:00
    OK