Cifra Club

Toda Forma de Poder Banco

Pouca Vogal

Cifrado: Principal (guitarra y guitarra eléctrica)
tono: B
(Intro 3X)

E|-0--0------0--0------0--0-----------------
B|-0--0------0--0------0--0-----------------
G|-0--0------0--0------0--0-----------------
D|-2--2------2--2------2--2-----------------
A|-2--2------2--2------2--2-----------------
E|-X--X------X--X------X--X------10-8-7-5---
         *         *         *
Eu presto atenção...

E|-0--0------0--0------X--X-----------------
B|-0--0------0--0------5--5-----------------
G|-0--0------0--0------5--5-----------------
D|-2--2------2--2------5--5-----------------
A|-2--2------2--2------X--X-----------------
E|-X--X------X--X------X--X------10-8-7-5---
         *         *         *

E|--X-X-X-X-----X-X-X-X---------------------
B|--2-2-2-2-----4-4-4-4---------------------
G|--2-2-2-2-----4-4-4-4---------------------
D|--2-2-2-2-----4-4-4-4---------------------
A|--X-X-X-X-----X-X-X-X---------------------
E|--X-X-X-X-----X-X-X-X---------------------

Se tudo passa...

E|-0--0------0--0------0--0--0----X-X-X-----
B|-0--0------0--0------1--1--1----4-4-4-----
G|-0--0------0--0------2--2--2----4-4-4-----
D|-2--2------2--2------2--2--2----4-4-4-----
A|-2--2------2--2------0--0--0----X-X-X-----
E|-X--X------X--X-----------------X-X-X-----
         *         *

(Intro)

O fascismo é fascinante...

E|-0--0------0--0------X--X-----------------
B|-0--0------0--0------5--5-----------------
G|-0--0------0--0------5--5-----------------
D|-2--2------2--2------5--5-----------------
A|-2--2------2--2------X--X-----------------
E|-X--X------X--X------X--X------10-8-7-5---
         *         *         *

Se tudo passa...

E|-0--0------0--0------0--0--0----X-X-X-----
B|-0--0------0--0------1--1--1----4-4-4-----
G|-0--0------0--0------2--2--2----4-4-4-----
D|-2--2------2--2------2--2--2----4-4-4-----
A|-2--2------2--2------0--0--0----X-X-X-----
E|-X--X------X--X-----------------X-X-X-----
         *         *

(Intro)


(E F# B)
Deve haver alguma coisa que ainda te emocione
Deve haver alguma coisa que ainda te emocione
Uma garota, um bom combate um gol aos 46
Deve haver alguma coisa que ainda te emocione
Um vinho tinto, um copo d'água, chuva no telhado, pôr-de-sol
Deve haver alguma coisa que ainda te emocione
Um cavalo em disparada, pijamas listrados, nada pra fazer
Deve haver alguma coisa que ainda te emocione
Deve haver alguma coisa que ainda te emocione

        E        F# B    E
E que faça esquecer... ou...
00:00 / 00:00
Otros videos de esta canción
Repetir
Otros videos de esta canción
Composición de Humberto Gessinger
Colaboración y revisión:
  • Gabriel Augusto
76 vistas
    • ½ Tono
    • A
    • Bb
    • B
    • C
    • Db
    • D
    • Eb
    • E
    • F
    • F#
    • G
    • Ab
  • Agregar a la lista

    0 comentarios

    Ver todos los comentarios

    ¿Lograste tocar?

    1 Tocaron 0 Aún no

    ¡Graba un video tocando Toda Forma de Poder Banco y envíanoslo!

    00:00 / 00:00
    OK