Cifra Club

A Song Called Everything

Powderfinger

Cifrado: Principal (guitarra y guitarra eléctrica)
tono: C
Album: Vulture Street (Track 11)

Transcribed by Paul @ OzTabs (*)
*

VERSES:
    A        Dm
E-|----------1---3p1-3p1-|-
B-|-2---3-2--3-----------|-
G-|-2--------2-----------|-
D-|-2--------0-----------|- (let the chords ring out while playing the extra notes)
A-|-0--------------------|-
E-|----------------------|-

PRE CHORUS:
    Em            G             C
E-|---------------3--3-3-3-3-3-----------------------------|-
B-|----0-0-0-0-0--3--3-3-3-3-3--5--6-6-6-5-5--5--6-6-6-5-5-|-
G-|-0--0-0-0-0-0--4--4-4-4-4-4--5--5-5-5-5-5--5--5-5-5-5-5-|-
D-|-2--2-2-2-2-2--5--5-5-5-5-5--5--5-5-5-5-5--5--5-5-5-5-5-|-
A-|-2--2-2-2-2-2--5--5-5-5-5-5--3--3-3-3-3-3--3--3-3-3-3-3-|-
E-|-0--0-0-0-0-0--3--3-3-3-3-3-----------------------------|-

    Em            G             C       B/C     A
E-|---------------3--3-3-3-3-3--0--0-0--0--0-0---------------|-
B-|----0-0-0-0-0--3--3-3-3-3-3--1--1-1--1--1-1--2--2-2-2-2-2-|-
G-|-0--0-0-0-0-0--4--4-4-4-4-4--0--0-0--0--0-0--2--2-2-2-2-2-|-
D-|-2--2-2-2-2-2--5--5-5-5-5-5--2--2-2--0--0-0--2--2-2-2-2-2-|-
A-|-2--2-2-2-2-2--5--5-5-5-5-5--3--3-3--2--2-2--0--0-0-0-0-0-|-
E-|-0--0-0-0-0-0--3--3-3-3-3-3-------------------------------|-

CHORUS
    G             Dsus4         Em            C
E-|-3--3-3-3-3-3--0--0-0-0-0-0--0--0-0-0-0-0--0--0-0-0-0-0-|-
B-|-3--3-3-3-3-3--3--3-3-3-3-3--0--0-0-0-0-0--1--1-1-1-1-1-|-
G-|-0--0-0-0-0-0--2--2-2-2-2-2--0--0-0-0-0-0--0--0-0-0-0-0-|-
D-|-0--0-0-0-0-0--0--0-0-0-0-0--2--2-2-2-2-2--2--2-2-2-2-2-|-
A-|-2--2-2-2-2-2----------------2--2-2-2-2-2--3--3-3-3-3-3-|-
E-|-3--3-3-3-3-3----------------0--0-0-0-0-0---------------|-

SOLO RHYTHM / OUTRO:
    Em            G             D
E-|---------------3--3-3-3-3-3-----------------------------|-
B-|----0-0-0-0-0--3--3-3-3-3-3--7--7-7-7-7-7--7--7-7-7-7-7-|-
G-|-0--0-0-0-0-0--4--4-4-4-4-4--7--7-7-7-7-7--7--7-7-7-7-7-|-
D-|-2--2-2-2-2-2--5--5-5-5-5-5--7--7-7-7-7-7--7--7-7-7-7-7-|-
A-|-2--2-2-2-2-2--5--5-5-5-5-5--5--5-5-5-5-5--5--5-5-5-5-5-|-
E-|-0--0-0-0-0-0--3--3-3-3-3-3-----------------------------|-
00:00 / 00:00
Otros videos de esta canción
Repetir
Otros videos de esta canción
Compositor no encontrado.
17 exhibiciones
    • ½ Tono
    • A
    • Bb
    • B
    • C
    • Db
    • D
    • Eb
    • E
    • F
    • F#
    • G
    • Ab
  • Agregar a la lista
    00:00 / 00:00
    OK