Cifra Club

Wild Angels

Pretty Boy Floyd

Cifrado: Principal (guitarra y guitarra eléctrica)
Selo Cifra Club: esta cifra foi revisada para atender aos critérios oficiais da nossa Equipe de Qualidade.
tono: E
      E  E  E  E  E  E  E  E     E  E  E  E  E  E  E  E   6x
E||---------3-----------3-----|--------3-----------3------||
B||------3-----3-----3-----3--|-----3-----3-----3-----3---||
G||*--0-----------------------|--------------------------*||
D||*--------------4-----------|--2-----------0-----------*||
A||---------------------------|---------------------------||
E||---------------------------|---------------------------||


  E  E  E  E  E  E  Q    E     E  E  E  E  E  E  Q     
----------------------------|-----0--------0----------|
-----1--------3--1----------|--------3--------3-------|
--------0-----------0----0--|-----------2--------2----|
--2--------2----------------|-------------------------|
----------------------------|-------------------------|
----------------------------|-------------------------|


    E  E  E  E  E  E  E  E     E  E  E  E  E  E  E  E     
|---------3-----------3-----|--------3-----------3------||
|------3-----3-----3-----3--|-----3-----3-----3-----3---||
|*--0-----------------------|--------------------------*||
|*--------------4-----------|--2-----------0-----------*||
|---------------------------|---------------------------||
|---------------------------|---------------------------||


  E  E  E  E  E  E  Q       E  E  E  E  E  E  Q       E  E  E  E  E  E  E  E   
-------------------------|-----0--------0----------|--------3-----------3-----|
-----1--------3--1-------|--------3--------3-------|-----3-----3-----3-----3--|
--------0-----------0----|--0--------2--------2----|--0-----------------------|
--2--------2-------------|-------------------------|--------------4-----------|
-------------------------|-------------------------|--------------------------|
-------------------------|-------------------------|--------------------------|


  E  E  E  E  E  E  E  E   
--------3-----------3-----|
-----3-----3-----3-----3--|
--------------------------|
--2-----------0-----------|
--------------------------|
--------------------------|


  W                W                H        H        H        E  Q     
-----------------------------------------------------------------------|
-----------------------------------------------------------------------|
--5----------------7----------------9--------7--------5--------7--7----|
--5----------------7----------------9--------7--------5--------7--7----|
--3----------------5----------------7--------5--------3--------5--5----|
-----------------------------------------------------------------------|


  PM PM PM PM PM PM PM                                                     
  E  E  E  E  E  E  Q       E  E  E  E  E  E  Q       Q    Q    Q    Q     
-------------------------|--------------3--2--0----|----------------------|
--------------3----------|--------------3--3--0----|----------------------|
--5--5--5--5-----5-------|-----7--7--7-------------|--9----9----9----9----|
--5--5--5--5--------5----|-----7--7--7-------------|--9----9----9----9----|
--3--3--3--3-------------|-----5--5--5-------------|--7----7----7----7----|
-------------------------|-------------------------|----------------------|


  E  H        E  Q       Q    H        E  E   
----------------------|----------------------|
----------------------|----------------------|
--------------5--5----|----------------5--5--|
--------------5--5----|----------------5--5--|
--------------3--3----|----------------3--3--|
----------------------|----------------------|


   H         H        E  Q    Q    H         
--------------------------------------------|
--------------------------------------------|
--12--------11--------9--9----9----7--------|
--12--------11--------9--9----9----7--------|
--10---------9--------7--7----7----5--------|
--------------------------------------------|


   H         H        E  E  E  E  Q        E    H         H         
---------------------------------------|---------------------------|
---------------------------------------|---------------------------|
--12--------11--------9--9--9--9--9----|--11---12--------11--------|
--12--------11--------9--9--9--9--9----|--11S--12--------11--------|
--10---------9--------7--7--7--7--7----|---9---10---------9--------|
---------------------------------------|---------------------------|


  E  Q    Q    H           W                    W                 
------------------------|--------------------|-------------------|
------------------------|--------------------|-------------------|
--9--9----9----7--------|--5S----------------|--7----------------|
--9--9----9----7--------|--5-----------------|--7----------------|
--7--7----7----5--------|--3-----------------|--5----------------|
------------------------|--------------------|-------------------|


    E  E  E  E  E  E  E  E     E  E  E  E  E  E  E  E   4x
|---------3-----------3-----|--------3-----------3------||
|------3-----3-----3-----3--|-----3-----3-----3-----3---||
|*--0-----------------------|--------------------------*||
|*--------------4-----------|--2-----------0-----------*||
|---------------------------|---------------------------||
|---------------------------|---------------------------||


  E  E  E  E  E  E  Q       E  E  E  E  E  E  Q     
-------------------------|-----0--------0----------|
-----1--------3--1-------|--------3--------3-------|
--------0-----------0----|--0--------2--------2----|
--2--------2-------------|-------------------------|
-------------------------|-------------------------|
-------------------------|-------------------------|


    E  E  E  E  E  E  E  E     E  E  E  E  E  E  E  E   3x
|---------3-----------3-----|--------3-----------3------||
|------3-----3-----3-----3--|-----3-----3-----3-----3---||
|*--0-----------------------|--------------------------*||
|*--------------4-----------|--2-----------0-----------*||
|---------------------------|---------------------------||
|---------------------------|---------------------------||


  E  E  E  E  E  E  Q       E  E  E  E  E  E  Q       E  E  E  E  E  E  E  E   
-------------------------|-----0--------0----------|--------3-----------3-----|
-----1--------3--1-------|--------3--------3-------|-----3-----3-----3-----3--|
--------0-----------0----|--0--------2--------2----|--0-----------------------|
--2--------2-------------|-------------------------|--------------4-----------|
-------------------------|-------------------------|--------------------------|
-------------------------|-------------------------|--------------------------|


  E  E  E  E  E  E  E  E     W                   W                 
--------3-----------3-----|-------------------|-------------------|
-----3-----3-----3-----3--|-------------------|-------------------|
--------------------------|--5----------------|--7----------------|
--2-----------0-----------|--5----------------|--7----------------|
--------------------------|--3----------------|--5----------------|
--------------------------|-------------------|-------------------|


                                              PM PM PM PM PM PM PM    
  H        H           E  H        E  Q       E  E  E  E  E  E  Q     
--------------------|----------------------|-------------------------|
--------------------|----------------------|--------------3----------|
--9--------7--------|-----5--------7--7----|--5--5--5--5-----5-------|
--9--------7--------|-----5--------7--7----|--5--5--5--5--------5----|
--7--------5--------|-----3--------5--5----|--3--3--3--3-------------|
--------------------|----------------------|-------------------------|


  E  E  E  E  E  Q    Q       Q    Q    Q    E  Q       Q    H        E  E   
-----------3--2--0---------|-------------------------|----------------------|
-----------3--3--0---------|-------------------------|----------------------|
--7--7--7-------------9----|--9----9----9----5--5----|----------------5--5--|
--7--7--7-------------9----|--9----9----9----5--5----|----------------5--5--|
--5--5--5-------------7----|--7----7----7----3--3----|----------------3--3--|
---------------------------|-------------------------|----------------------|


   H         H           E  Q    Q    H            H         H         
----------------------|------------------------|----------------------|
----------------------|------------------------|----------------------|
--12--------11--------|--9--9----9----7--------|--12--------11--------|
--12--------11--------|--9--9----9----7--------|--12--------11--------|
--10---------9--------|--7--7----7----5--------|--10---------9--------|
----------------------|------------------------|----------------------|


  E  E  E  E  Q     E    H            H        E  Q    Q     
----------------------------------|-------------------------|
----------------------------------|-------------------------|
--9--9--9--9--9----11---12--------|--11--------9--9----9----|
--9--9--9--9--9----11S--12--------|--11--------9--9----9----|
--7--7--7--7--7-----9---10--------|---9--------7--7----7----|
----------------------------------|-------------------------|


           PM PM PM PM PM PM PM PM PM                            
  H        E  E  E  E  E  E  E  E  E     E  E  W                 
--------------------------------------|-------------------------|
--------------------------------------|-------------------------|
--7--------5--5--5--5--5--5--5--5--5--|--7--7--7----------------|
--7--------5--5--5--5--5--5--5--5--5--|--7--7--7----------------|
--5--------3--3--3--3--3--3--3--3--3--|--5--5--5----------------|
--------------------------------------|-------------------------|


  W                   W                   H        H         
-------------------|-------------------|--------------------|
-------------------|-------------------|--------------------|
--5----------------|--7----------------|--9--------7--------|
--5----------------|--7----------------|--9--------7--------|
--3----------------|--5----------------|--7--------5--------|
-------------------|-------------------|--------------------|


                         PM PM PM PM PM PM PM                                
  E  H        E  Q       E  E  E  E  E  E  Q       E  E  E  E  E  Q    Q     
----------------------|-------------------------|-----------3--2--0---------|
----------------------|--------------3----------|-----------3--3--0---------|
-----5--------7--7----|--5--5--5--5-----5-------|--7--7--7-------------9----|
-----5--------7--7----|--5--5--5--5--------5----|--7--7--7-------------9----|
-----3--------5--5----|--3--3--3--3-------------|--5--5--5-------------7----|
----------------------|-------------------------|---------------------------|


  Q    Q    Q    E  Q       Q    H        E  E      H         H         
-------------------------|----------------------|----------------------|
-------------------------|----------------------|----------------------|
--9----9----9----5--5----|----------------5--5--|--12--------11--------|
--9----9----9----5--5----|----------------5--5--|--12--------11--------|
--7----7----7----3--3----|----------------3--3--|--10---------9--------|
-------------------------|----------------------|----------------------|


  E  Q    Q    H            H         H         
------------------------|----------------------|
------------------------|----------------------|
--9--9----9----7--------|--12--------11--------|
--9--9----9----7--------|--12--------11--------|
--7--7----7----5--------|--10---------9--------|
------------------------|----------------------|


  E  E  E  E  Q     E    H            H        E  Q    Q     
----------------------------------|-------------------------|
----------------------------------|-------------------------|
--9--9--9--9--9----11---12--------|--11--------9--9----9----|
--9--9--9--9--9----11S--12--------|--11--------9--9----9----|
--7--7--7--7--7-----9---10--------|---9--------7--7----7----|
----------------------------------|-------------------------|


           PM PM PM PM            PM PM PM PM PM                           
  H        E  E  E  E     E  Q    E  E  E  E  E     Q    H         E   E   
-----------------------|-------------------------|------------------------|
-----------------------|-------------------------|------------------------|
--7--------5--5--5--5--|----------5--5--5--5--5--|------------------------|
--7--------5--5--5--5--|----------5--5--5--5--5--|----------------12--12--|
--5--------3--3--3--3--|----------3--3--3--3--3--|----------------10--10--|
-----------------------|-------------------------|------------------------|


                                        PM PM PM PM PM PM PM PM  
     E   E  E  E  E  E  Q    E  E   7x  E  E  E  E  E  E  E  E   
|-----------------------------------||--------------------------|
|-----------------------------------||--------------------------|
|*---------------------------------*||--5--5--5--5--5--5--5--5--|
|*--12--12--9--9--5--5--5----7--7--*||--5--5--5--5--5--5--5--5--|
|---10--10--7--7--3--3--3----5--5---||--3--3--3--3--3--3--3--3--|
|-----------------------------------||--------------------------|


                   PM                                                    
  E  Q    H        E        H         H           E  Q    Q    H         
----------------------||-----------------------|------------------------|
----------------------||-----------------------|------------------------|
-------------------5--||*--12--------11--------|--9--9----9----7--------|
-------------------5--||*--12--------11--------|--9--9----9----7--------|
-------------------3--||---10---------9--------|--7--7----7----5--------|
----------------------||-----------------------|------------------------|


   H         H           E  E  E  E  Q     E    H         
----------------------|----------------------------------|
----------------------|----------------------------------|
--12--------11--------|--9--9--9--9--9----11---12--------|
--12--------11--------|--9--9--9--9--9----11S--12--------|
--10---------9--------|--7--7--7--7--7-----9---10--------|
----------------------|----------------------------------|


   H        E  Q    Q       H        H             W                  
-------------------------|---------------------||-------------------||
-------------------------|---------------------||-------------------||
--11--------9--9----9----|-----------7--------*||-------------------||
--11--------9--9----9----|-----------7--------*||-------------------||
---9--------7--7----7----|-----------5---------||-------------------||
-------------------------|---------------------||-------------------||




Duration Legend
---------------
W - whole
H - half
Q - quarter
E - 8th
S - 16th
T - 32nd
X - 64th
. - note dotted
|-n-|  - n-tuplets


Tablature Legend
----------------
L - tied note
x - dead note
g - grace note
(n) - ghost note
> - accentuded note
NH - natural harmonic
AH - artificial harmonic
TH - tapped harmonic
SH - semi harmonic
PH - pitch harmonic
h - hammer on
p - pull off
b - bend
br - bendRelease
pb - preBend
pbr - preBendRelease
brb - bendReleaseBend
\n/ - tremolo bar dip
\n - tremolo bar dive
-/n - tremolo bar Release up
/n\ - tremolo bar inverted dip
/n - tremolo bar return
-\n - tremolo bar Release down
S - shift slide
s - legato slide
/ -  slide into from below or out of upwards
\ -  slide into from above or out of downwards
~ - vibrato
W - wide vibrato
tr - trill
TP - tremolo picking
T - tapping
S - slap
P - pop
< - fade in
^ - brush up
v - brush down
Otros videos de esta canción
    104 exhibiciones
      • ½ Tono
      • A
      • Bb
      • B
      • C
      • Db
      • D
      • Eb
      • E
      • F
      • F#
      • G
      • Ab
    • Agregar a la lista

    Afinação da cifra

    Afinador online

      Ops (: Contenido disponible solo en portugués.
      OK