Cifra Club

Loose

Primer 55

Cifrado: Principal (guitarra y guitarra eléctrica)
Selo Cifra Club: esta cifra foi revisada para atender aos critérios oficiais da nossa Equipe de Qualidade.
tono: D (forma dos acordes no tom de E) Afinación: D G C F A D
Afinação: Drop C# (C#-G#-C#-F#-A#-D# ou Db-Ab-Db-Gb-Bb-Eb)              

()=harmônico      ~=vibrato

Intro
Eb|---------------------|    |---------------------|
Bb|---------------------|    |---------------------|
Gb|---------------------|    |---------------------|
Db|---------------------|    |3-2-0-0-2-1-0-0-2-1-0|
Ab|---------------------|4x  |3-2-0-0-2-1-0-0-2-1-0|8x
Db|3/2-0-0-2/1-0-0-2-1-0|    |3-2-0-0-2-1-0-0-2-1-0|


Verso
Eb|--------(19)---|  |-----------------------------|
Bb|----(19)----20~|3x|----(19)---------------------|
 Gb|(19)-----------|  |(19)-------------------------|

Db|---------------|  |-----------------------------|
Ab|---------------|  |-----------------------------|
Db|---------------|  |--------3/2-0-0-2/1-0-0-2/1-0|

Refrão
Eb|---------------------|
Bb|---------------------|
Gb|---------------------|
 Db|3-2-0-0-2-1-0-0-2-1-0|

Ab|3-2-0-0-2-1-0-0-2-1-0|
Db|3-2-0-0-2-1-0-0-2-1-0|


Ponte
Eb|----------|
Bb|----------|
Gb|----------|
 Db|0----3----|

Ab|0----3----|
Db|0----3----|
Otros videos de esta canción
    30 exhibiciones
      • ½ Tono
      • A
      • Bb
      • B
      • C
      • Db
      • D
      • Eb
      • E
      • F
      • F#
      • G
      • Ab
    • Agregar a la lista

    Afinação da cifra

    Afinador online

      Ops (: Contenido disponible solo en portugués.
      OK