Cifra Club

My Girl

Primer 55

Cifrado: Principal (guitarra y guitarra eléctrica)
Selo Cifra Club: esta cifra foi revisada para atender aos critérios oficiais da nossa Equipe de Qualidade.
tono: B
Afinação: Drop B - C# G# E B F# B

Intro & Verso (Clean)
C#|---------------------------------------------------------------|
G#|---------------------------------------------------------------|
E|---------7-7-7-------------------------------------------------|
B|-0-------7-7-7-6-------6-----6-5-------5-----5---------5-----5-|
F#|-0-0-0-0-5-5-5-6-6-6-6-6-6-6-6-5-5-5-5-5-5-5-5-5-5-5-5-5-5-5-5-|
B|-0-0-0-0-------6-6-6-6-6-6-6-6-5-5-5-5-5-5-5-5-5-5-5-5-5-5-5-5-|

Ponte (Distorção)
C#|---------------------------------------------------|
G#|---------------------------------------------------|
E|---------------------------------------------------|
B|-0-3--0-3---0-3--0-3---0-3---0-3---3/5-5-5-5-5-5-5-|
F#|-0-3--0-3---0-3--0-3---0-3---0-3---3/5-5-5-5-5-5-5-|
B|-0-3--0-3---0-3--0-3---0-3---0-3---3/5-5-5-5-5-5-5-|

Refrão (Distorção)
C#|-----------------------------------|
G#|-----------------------------------|
E|----7-7-7--------------------------|
B|-0--7-7-7-6-6-6-66--/8-8-8-8-8-8-8-|
F#|-0--5-5-5-6-6-6-66--/8-8-8-8-8-8-8-|
B|-0--------6-6-6-66--/8-8-8-8-8-8-8-|

Interlúdio (Clean)
C#|-----------|
G#|-----------|
E|-----------|
B|-0---6---5-|
F#|-0---6---5-|
B|-0---6---5-|

Final (Distorção)
C#|-------------------------------------------------------|
G#|-------------------------------------------------------|
E|-------------------------------------------------------|
B|-0-3--0-3---0-3--0-3---0-3---0-3---3/5-5-5-5-5-5-5-0---|
F#|-0-3--0-3---0-3--0-3---0-3---0-3---3/5-5-5-5-5-5-5-0---|
B|-0-3--0-3---0-3--0-3---0-3---0-3---3/5-5-5-5-5-5-5-0---|
Otros videos de esta canción
    7 exhibiciones
      • ½ Tono
      • A
      • Bb
      • B
      • C
      • Db
      • D
      • Eb
      • E
      • F
      • F#
      • G
      • Ab
    • Agregar a la lista

    Afinação da cifra

    Afinador online

      Ops (: Contenido disponible solo en portugués.
      OK