Cifra Club

El verdadero amor perdona

Prince Royce

Cifrado: Principal (guitarra y guitarra eléctrica)
Selo Cifra Club: esta cifra foi revisada para atender aos critérios oficiais da nossa Equipe de Qualidade.
tono: Ebm
Intro:D#m,A#m,B,F#

E|---------------------|----------------------|
B|---------------------|----------------------|
G|--3------------------|----------------------|
D|----1--1-3-4-3-------|--------4-------------|
A|----------------1----|--1-2-4---2-----------|
E|---------------------|----------------------|

E|---------------------|----------------------|
B|---------------------|----------------------|
G|------4-3------------|---3p1---1-3----------|
D|--4-6-----4----------|-------3--------------|
A|---------------------|----------------------|
E|---------------------|----------------------|

Tienes todos los espacios
E|---------------------|
B|---------------------|
G|---------------------|
D|--------4------------|
A|--1-2-4--------------|
E|---------------------|

Inundados de tu ausencia
E|---------------------|
B|---------------------|
G|--3p1---1-3----------|
D|------3--------------|
A|---------------------|
E|---------------------|

Inundados de silencio
E|---------------------|
B|---------------------|
G|---------------------|
D|--------4------------|
A|--1-2-4--------------|
E|---------------------|

No hay palabras no hay perdón
E|---------------------|
B|---------------------|
G|--3p1---1-3----------|
D|------3--------------|
A|---------------------|
E|---------------------|


D#m                A#m
Tu me tienes olvidado
E|---------------------|
B|---------------------|
G|---------------------|
D|--------4------------|
A|--1-2-4--------------|
E|---------------------|

B                    F#
No respondes al llamado
E|---------------------|
B|---------------------|
G|--3p1---1-3----------|
D|------3--------------|
A|---------------------|
E|---------------------|

D#m                         A#m
No heches tierra a la palabra
E|---------------------|
B|---------------------|
G|---------------------|
D|--------4------------|
A|--1-2-4--------------|
E|---------------------|

B                                              C#
Me condenas a la nada, no me entierres sin perdón.

D#m                       A#m
Mira corazón que es el engaño
                    B                   F#m
Se revierte y hace daño, se revienta en el aire
                  A#m
Como pompas de jabón


D#m                     A#m
Como pude haberte yo herido
B                                           F#
Engañarte y ofendido? Alma gemela no te olvido
                           A#m
Aunque me arranque el corazón


PDC ORO:

G#m            C#             F#             A#m
Haaay!!!el rencor que nos envenena nos hace daño
G#m                  C#                 F#
aunque no regreses corazón has de perdonarme

CORO

  B
El verdadero amor perdona
       Bm             F#
No abandona, no se quiebra
      D#m
No aprisiona
       B                     C#
No revienta como pompas de jabón.


Intro:D#m,A#m,B,F#

Aahhaaaahhhh        aaahhhh
E|---------------------|----------------------|
B|---------------------|----------------------|
G|--3------------------|----------------------|
D|----1--1-3-4-3-------|--------4-------------|
A|----------------1----|--1-2-4---2-----------|
E|---------------------|----------------------|
Aaaahhhh             ahhahahhahh
E|---------------------|----------------------|
B|---------------------|----------------------|
G|------4-3------------|---3p1---1-3----------|
D|--4-6-----4----------|-------3--------------|
A|---------------------|----------------------|
E|---------------------|----------------------|



D#m                 A#m
Un error es algo humano
B                    F#
No justifico la traición
D#m                              A#m
Los amantes verdaderos se comprenden
B                            F#
Se aman y se olvidan del rencor

E|---------------------|
B|---------------------|
G|--3p1---1-3----------|
D|------3--------------|
A|---------------------|
E|---------------------|

D#m                          A#m
La noche empieza a amotinarse

E|---------------------|
B|---------------------|
G|---------------------|
D|--------4------------|
A|--1-2-4--------------|
E|---------------------|


B                      F#
De sueños rotos y dolor

E|---------------------|
B|---------------------|
G|--3p1---1-3----------|
D|------3--------------|
A|---------------------|
E|---------------------|

D#m                     A#m
Y me revuelco en esta cama

E|---------------------|
B|---------------------|
G|---------------------|
D|--------4------------|
A|--1-2-4--------------|
E|---------------------|

B                                       C#
Aferrandome a la nada implorando tu perdón


D#m                         A#m
Mira corazón cuanto te extraño
B                                         F#
Pasan días, pasan años y mi vida se revienta
                   A#m
Como pompas de jabón

D#m                      A#m
Como pude haberte yo herido
B                                          F#
Engañarte y ofendido alma gemela, no te olvido
                            A#m
Aunque me arranque el corazón

PDC ORO:

G#m            C#             F#             A#m
Haaay!!!el rencor que nos envenena nos hace daño
G#m                  C#                 F#
aunque no regreses corazón has de perdonarme


Coro:

  B
El verdadero amor perdona
       Bm             F#
No abandona, no se quiebra
         D#m
No aprisiona
       B                     C#
No revienta como pompas de jabón.


INTRO:

D#m,A#m,B,F#

Aahhaaaahhhh        aaahhhh
E|---------------------|----------------------|
B|---------------------|----------------------|
G|--3------------------|----------------------|
D|----1--1-3-4-3-------|--------4-------------|
A|----------------1----|--1-2-4---2-----------|
E|---------------------|----------------------|
aaaahhhh
E|---------------------|----------------------|
B|---------------------|----------------------|
G|------4-3------------|---3p1---1-3----------|
D|--4-6-----4----------|-------3--------------|
A|---------------------|----------------------|
E|---------------------|----------------------|



Final:

D#m                      A#m
El verdadero amor perdona

E|---------------------|
B|---------------------|
G|---------------------|
D|--------4------------|
A|--1-2-4--------------|
E|---------------------|


B                         F#
El verdadero amor perdona
E|---------------------|
B|---------------------|
G|--3p1---1-3----------|
D|------3--------------|
A|---------------------|
E|---------------------|

D#m                   A#m
Si el amor es verdadero

E|---------------------|
B|---------------------|
G|---------------------|
D|--------4------------|
A|--1-2-4--------------|
E|---------------------|

B                       F#
No se quiebra no abandona

E|---------------------|
B|---------------------|
G|--3p1---1-3----------|
D|------3--------------|
A|---------------------|
E|---------------------|

D#m                   A#m
Si el amor es verdadero
B                       F#
No se quiebra no abandona
Otros videos de esta canción
    332 exhibiciones
      • ½ Tono
      • Am
      • Bbm
      • Bm
      • Cm
      • C#m
      • Dm
      • Ebm
      • Em
      • Fm
      • F#m
      • Gm
      • G#m
    • Agregar a la lista

    Afinación de cifrado

    Afinador online

      OK