Cifra Club

Tu y Yo

Prince Royce

Cifrado: Principal (guitarra y guitarra eléctrica)
Selo Cifra Club: esta cifra foi revisada para atender aos critérios oficiais da nossa Equipe de Qualidade.
tono: G
Introducción:


E|--9--12--7--12--5---5--4--2--0--2--|
B|-----------------------------------|
G|-----------------------------------|
D|-----------------------------------|
A|-----------------------------------|
E|-----------------------------------|

E|--2--4--5--9--10--7--5--9--9-------|
B|-----------------------------------|
G|-----------------------------------|
D|-----------------------------------|
A|-----------------------------------|
E|-----------------------------------|

E|--9--12--7--12--5---5--4--2--0--2--|
B|-----------------------------------|
G|-----------------------------------|
D|-----------------------------------|
A|-----------------------------------|
E|-----------------------------------|

E|--2--4--5--7--5--4--5--5-----------|
B|-----------------------------------|
G|-----------------------------------|
D|-----------------------------------|
A|-----------------------------------|
E|-----------------------------------|

G                                    Em
Yo se que tus amistades hablan mal de mi
                        C
Dicen que soy malo para ti
                          Em
Lo que sucede es entre tu y yo
                  D                      Em
Es un problema de dos esto es nuestra relacion
                                               G
They tell you that I might be going around cheating
                                            C
Dont believe them girl they âre just hating
                             Em
Te meten cosas en la mente no no
                    D
no le pongas atencion

C    D                  Em
Tu y yo enamorados corazon
                 G
te garantizo mi amor
C    D
Tu y yo solo tu y yo solos
Em
que no interfiera nadie
                   C
podran alejarme nooo


G     D         Em           C
Tu y yo los dos sonando de amor
D
Tu sabes que eres para mi
G     D          Em            C
Tu y yo los dos no tendremos dolor
D
Tu sabes que soy para ti
C                 D                Em           G
Y que lo sepa el mundo que nuestro amor debe vivir
C                D                 Em                 G
Y aunque se opongan sabes que por ti soy capaz de morir
C
Tu eres para mi
D
Yo soy para ti
Em                                     G
Te entrego mi vida y mi amor hasta el fin (x2)

Se repiten los acordes

Recuerdo la primera vez que yo te vi
En la escuela yo te conocí
Yo te cantaba desde el corazón
Use todo mi valor pa` confesarte mi amor
Y desde ese día nuestro amor creció
Inseparable éramos los dos
Una promesa hicimos tu y yo
Que nada destruya este amor


Coro:

Tú y yo, enamorados corazón
Te garantizo mi amor
Tu y yo (tu y yo) solos
Que no interfiera nadie, no podrán alejarme nooo
Tú y yo los dos, soñando de amor
Tú sabes que eres para mí
Tú y yo los dos no tendremos dolor
Tú sabes que soy para ti
Y que lo sepa el mundo que nuestro amor debe vivir
Y aunque se opongan sabes que por ti soy capaz de morir
Y que lo sepa el mundo que nuestro amor debe vivir

Dedicatoria: ojala algún dia me pueda olvidar de ti,
ojala algún dia pueda dejar de pensar en la única princesa
 que lejos de la fantasia se escapo de los cuentos de adas
para destruir mi vida sin notarlo, ojala algún dia te alejes
de mi para terminar mi agonia y morir en paz… pero por mientras
te voy a seguir amando con locura
Te amo catalina j.
00:00 / 00:00
Otros videos de esta canción
Repetir
Otros videos de esta canción
129 exhibiciones
    • ½ Tono
    • A
    • Bb
    • B
    • C
    • Db
    • D
    • Eb
    • E
    • F
    • F#
    • G
    • Ab
  • Agregar a la lista

Afinación de cifrado

Afinador online

    00:00 / 00:00
    OK