Cifra Club

Around The World In a Day

Prince

Cifrado: Principal (guitarra y guitarra eléctrica)
tono: E
INTRO
|---3-3-5---3---5-|-----3---|---1-1-3---1---3-|-----1---|
|-3---------------|-3-------|-1---------------|-1-------|
|-----------------|---------|-----------------|---------|
|-----------------|---------|-----------------|---------|
|-----------------|---------|-----------------|---------|
|-----------------|---------|-----------------|---------|

VERSE
Cadd2
Open your heart, open your mind
  Fsus4
A train is leaving all day
  Cadd2
A wonderful trip through our time
    Fsus4
And laughter is all U pay

CHORUS
Gm
Around the world in a day

|-8---6-8-11--11--|-6---5-6-8---8---|
|-8---6-8-11--11--|-6---5-6-8---8---|
|-----------------|-----------------|
|-----------------|-----------------|
|-----------------|-----------------|
|-----------------|-----------------|

VERSE 2
Cadd2
Loneliness already knows U
      Fsus4
There ain't no reason 2 stay
              Cadd2
Come here and take my hand, I'll show U
  Fsus4
I think I know a better way, y'all

REPEAT CHORUS

BRIDGE
E     Am  E     Am
Doo La La Doo La La La La
B      E
Ooo Sha Sha
A
La La La La Sha Ba Loo 
Sha Ba Loo Sha Bo Tee
G#m7           G
Loo La Sha Ba Tee
F#m7          F9
Lo Lo Sha Ba Tee
                      La La La La
|-----------------|-----------------|-----------------|
|---1-0-----0-1---|---1-0-----------|-2-3-2-----------|
|---------2-------|-------2---------|-------1---------|
|---------------2-|---------2-3-2-0-|-----------------|
|-----------------|-----------------|-----------------|
|-----------------|-----------------|-----------------|

VERSE 3
Fmaj7               
The little 1 will escort U
  Bb/F       C7
2 places within your mind
    Fmaj7                 
The former is red, white, and blue
    Bb7               C7
The latter is purple, come on and climb

REPEAT CHORUS
Composición de David Coleman / Prince
Colaboración y revisión:
  • Élison Duarte
31 vistas
    • ½ Tono
    • A
    • Bb
    • B
    • C
    • Db
    • D
    • Eb
    • E
    • F
    • F#
    • G
    • Ab
  • Agregar a la lista

    0 comentarios

    Ver todos los comentarios

    ¿Lograste tocar?

    0 Tocaron 0 Aún no

    ¡Graba un video tocando Around The World In a Day y envíanoslo!

    00:00 / 00:00
    Outros vídeos desta música
    Repetir Calidad Automático
    Outros vídeos desta música
    00:00 / 00:00
    Automático
    OK