Cifra Club

Espírito Santo

Priscilla Alcantara

Tablatura: Principal (guitarra)
reproducciones 1.627
Tono: Am
Intro 2x: Dm  Am7  Em  F9

Dedilhado:

Parte 1

    Dm               Am7
E|-----3--x-x-x-x-------0--x-x-x-x----------|
B|-----1--x-x-x-x-------1--x-x-x-x----------|
G|---2----x-x-x-x-----0----x-x-x-x----------|
D|-0------x-x-x-x----------x-x-x-x----------|
A|------------------0------x-x-x-x----------|
E|------------------------------------------|

Parte 2

    Em               F9
E|-----0--x-x-x-x-------3--x-x-x-x----------|
B|-----0--x-x-x-x-------1--x-x-x-x----------|
G|---0----x-x-x-x-----2----x-x-x-x----------|
D|--------x-x-x-x---3------x-x-x-x----------|
A|-------------------------x-x-x-x----------|
E|-0----------------------------------------|

Primeira Parte:

Dm           Am7
   Espírito Santo
      Em
É incrível como me sinto 
 F9                  Dm
Quando invade o meu ser
           Am7
Não dá pra explicar
   Em                      F9
A vontade que tenho de chorar
              Dm     Am7
Quando o meu coração arde com
  Em         F9
Tua presença
              Dm
Quando entro na casa do Pai
 Am7             Em
Me esvazio de tudo
           F9
Pra que Você me encha
 Dm                 Am7
Com apenas o que é seu
          Em                  F9
Nada que vem de mim quero manter

Refrão:

 Dm
Sou ser humano
 Am7                Em         F9  Dm
Mas escolho hoje viver pelo espírito
           Am7            Em
Escolho estar na casa do Pai
                 F9
Selando um novo tempo

Vivendo um novo

Dm               Am7
Eu prefiro te ouvir
       Em           F9
E cumprir o meu chamado
   Dm        Am7          Em
Espírito de Deus vem inundar
F9
   O meu ser

Solo (sem capotraste):

Parte 1

E|------------------------------------------------------|
B|-8------------8---------------------------------------|
G|-8------------8------8--10/12-8h10~-------------------|
D|---10-8--8-10---10-8-8--------------------------------|
A|------------------------------------------------------|
E|------------------------------------------------------|

Parte 2

E|------------------------------------------------------|
B|-----9/11-9-8-6/8-------------------------------------|
G|-7/8--------------10p8----8-10/11-11\10-8----8~-------|
D|-----------------------10-----------------10----------|
A|------------------------------------------------------|
E|------------------------------------------------------|

Parte 3

E|------------------------------------------------------|
B|------------------------------------------------------|
G|------------------------------------------------------|
D|-10p8-10~--8------------------------------------------|
A|-------------10\8p6-8/10-8h10~------------------------|
E|------------------------------------------------------|

Parte 4

E|------------------------------------------------------|
B|------------------------------------------------------|
G|------------------------------------------------------|
D|------------------------------------------------------|
A|-7-6h7-6h7p6------------------------------------------|
E|-------------8-6-8/11-11\8-6-8/11-8-------------------|

Primeira Parte:

Dm           Am7
   Espírito Santo
      Em
É incrível como me sinto 
 F9                  Dm
Quando invade o meu ser
           Am7
Não dá pra explicar
   Em                      F9
A vontade que tenho de chorar
              Dm     Am7
Quando o meu coração arde com
  Em         F9
Tua presença
              Dm
Quando entro na casa do Pai
 Am7             Em
Me esvazio de tudo
           F9
Pra que Você me encha
 Dm                 Am7
Com apenas o que é seu
          Em                  F9
Nada que vem de mim quero manter

Refrão:

 Dm
Sou ser humano
 Am7                Em         F9  Dm
Mas escolho hoje viver pelo espírito
           Am7            Em
Escolho estar na casa do Pai
                 F9
Selando um novo tempo

Vivendo um novo

 m               Am7
Eu prefiro te ouvir
       Em           F9
E cumprir o meu chamado
   Dm        Am7          Em
Espírito de Deus vem inundar
F9
   O meu ser

(Dm  Am7  Em  F9) 2x

Refrão Final:

 Dm
Sou ser humano
 Am7                Em         F9  Dm
Mas escolho hoje viver pelo espírito
           Am7            Em
Escolho estar na casa do Pai
                 F9
Selando um novo tempo

Vivendo um novo

Dm               Am7
Eu prefiro te ouvir
       Em           F9
E cumprir o meu chamado
   Dm        Am7          Em
Espírito de Deus vem inundar
F9        Dm  Am7  Em  F9
   O meu ser
Dm          Am7  Em           F9  Dm
   Vem inundar      o meu ser

Final:

E|------------------------------------------------------|
B|-------1---0h1--3---1---0h1-0h1--3---1---0h1-0h1--3---|
G|-0h2-2---2--------2---2------------2---2----------2---|
D|--------------------------------------------------0---|
A|------------------------------------------------------|
E|------------------------------------------------------|
Acordes para:

    0 comentarios

    mostrar más comentarios

    ¿Conseguiste tocar?

    102 tocaron 17 aún no

    ¡Graba un vídeo tocando Espírito Santo y envianoslo!

    00:00 / 00:00
    outros vídeos desta música
    repetir qualidade Automático
    Outros vídeos desta música
    00:00 / 00:00
    Automático
    Capítulos
    • Tocando a Música
    • Dicas iniciais / Equipamentos
    • Acordes da música
    • Dicas introdução
    • Tocando introdução
    • Ensinando dedilhado introdução / estrofes
    • Dedilhado 1 de 2
    • Dedilhado 2 de 2
    • Dicas Refrão 1 e 2
    • Tocando Refrão 2
    • Ensinando Refrão 2
    • Dicas Refrão 3
    • Tocando Refrão 3
    • Ensinando Refrão 3
    • Ensinando solo final
    • Dicas solo principal (meio da música)
    • Tocando solo principal
    • Ensinando solo principal - Parte 1 de 4
    • Ensinando solo principal - Parte 2 de 4
    • Ensinando solo principal - Parte 3 de 4
    • Ensinando solo principal - Parte 4 de 4
    • Encerramento
    • Ficha Técnica
    OK