Cifra Club

O Soco Racional

Projeto Peixe Morto

Cifrado: Principal (guitarra y guitarra eléctrica)
Selo Cifra Club: esta cifra foi revisada para atender aos critérios oficiais da nossa Equipe de Qualidade.
tono: E
(intro)

      B/C#  A     B/C#   A  E
E|---------------------------------|
B|---------------------------------|
G|-4/666-------4/666---------------|
D|-x/xxx-77..--x/xxx--77-22--------| (2x)
A|-2/444-77..--2/444--77-22--------|
E|-------55..---------55-00--------|

(riff 1)
     C#
D|PM--6-PM-6...---------------------|
A|-4----44--...---------------------|

(riff 1)
 Ontem eu errei, hoje vou acertar
                  B
Me desculpe se um dia eu te fiz chorar
C#       A      C#      A
 Quero acertar, quero caminhar
C#            A              B
 Em cima da estrada que você construiu

C#         E       B
 Estava doente agora estou curado
C#         E       B             B A# A
 Muito obrigado por me medicar

(riff 2)
      A     E/C#         A    E/C#    B
E|--------------|   |-------------------|
B|--------------|   |-------------------|
G|-------9/66..-|   |------9/66..--44..-|
D|-77..--x/xx..-|2x |-77..-x/xx..--44..-|
A|-77..--7/44..-|   |-77..-7/44..--22..-|
E|-55..---------|   |-55..--------------|

(riff 2)
 Agora posso ver, não vou me confundir
Sei bem onde pisar

(intro)
      B/C#  A     B/C#   A  E
E|---------------------------------|
B|---------------------------------|
G|-4/666-------4/666---------------|
D|-x/xxx-77..--x/xxx--77-22--------| (2x)
A|-2/444-77..--2/444--77-22--------|
E|-------55..---------55-00--------|

(riff 1)
A agressividade não pode ser usada
                   B
Somente em momentos propicios
C#          A       C#         A
 Não vou me debater, só vou me calar
C#       A     B
 A minha voz agora vai baixar
C#         E       B
 Estava doente mas agora aprendi
C#         E       B              B A# A
 Reações imprevisiveis são ruins

(riff 2)
Se você não resolve agir
Posso pagar por isso
                                    C#
Mas estou bem, não vou te machucar
Otros videos de esta canción
    311 exhibiciones
      • ½ Tono
      • A
      • Bb
      • B
      • C
      • Db
      • D
      • Eb
      • E
      • F
      • F#
      • G
      • Ab
    • Agregar a la lista

    Afinación de cifrado

    Afinador online

      OK