Cifra Club

Fake

Puya

Cifrado: Principal (guitarra y guitarra eléctrica)
tono: D
Intro
E|----------------------------------------|
B|----------------------------------------|
G|----------------------------------------|
D|---5-3-5----5-3-5----5-3-5----5-88888---|
A|---5-3-5----5-3-5----5-3-5----5-88888---|
E|---5-3-5----5-3-5----5-3-5----5-88888---|

Verse
E|-------------------------------------------------|
B|-------------------------------------------------|
G|-------------------------------------------------|
D|--0-0-3-3----0-0-3-3----0-0-3-3----0-0-3-3----6--|
A|--0-0-3-3----0-0-3-3----0-0-3-3----0-0-3-3----6--|
E|--0-0-3-3----0-0-3-3----0-0-3-3----0-0-3-3----6--|

Chorus
E|--------------------|------------------------------|
B|--------------------|------------------------------|
G|--------------------|------------------------------|
D|--3--5-5--3--5--3-5-|-3--5-5--3--5--3-5----6--3----|
A|--3--5-5--3--5--3-5-|-3--5-5--3--5--3-5----6--3----|
E|--3--5-5--3--5--3-5-|-3--5-5--3--5--3-5----6--3----|

End second chorus
E|----------------------------|
B|----------------------------|
G|----------------------------|
D|--3--5-5--3--5--3-5----4----|
A|--3--5-5--3--5--3-5----4----|
E|--3--5-5--3--5--3-5----4----|

Interlude
E|------------------------------|
B|------------------------------|
G|------------------r| epeat------
D|---777--7777------------------|
A|---555--6666------------------|
E|------------------------------|

Solo rhythm
E|----------10---11---r| epeat------|------------------
B|----------10---11---------------|--13/15| /15--
G|-----------7----8---------------|------------------|
D|-----------7----8---------------|--10/12| /12--
A|--------------------------------|------------------|
E|--------------------------------|------------------|
Composición de Puya
    • ½ Tono
    • A
    • Bb
    • B
    • C
    • Db
    • D
    • Eb
    • E
    • F
    • F#
    • G
    • Ab
  • Agregar a la lista

    0 comentarios

    Ver todos los comentarios

    ¿Lograste tocar?

    0 Tocaron 0 Aún no

    ¡Graba un video tocando Fake y envíanoslo!

    00:00 / 00:00
    Otros videos de esta canción
    Repetir Calidad Automático
    Otros videos de esta canción
    00:00 / 00:00
    Automático
    OK