Cifra Club

Getting Away

QBO

Cifrado: Principal (guitarra y guitarra eléctrica)
tono: F
Afinacion D (D,A,D,G,B,e)

h=hammer-on
x=note mute
/=slide

Versos [palm mute]

D|---0---5---8-------|
A|---0---5---8---3---|
D|---0---5---8---5---|
G|---------------5---|
B|-------------------|
e|-------------------|


Coro[distor]

D|---8---0---3-------|
A|---8---0---3---3---|
D|---8---0---3---5---|
G|---------------5---|
B|-------------------|
e|-------------------|


Pre-Verso

D|-----------------------------------|
A|-----------------------------------|
D|-----------------------------------|
G|-----------------------------------|
B|--1h3-33-1h3-33-1h3-33--3-x-x-1-3--|
e|-----------------------1-----------|

Pre-Puente
                 x3                     x2
D|----------------------------------|-------|---------------------|
A|----------------------------------|-------|---------------------|
D|----------------------------------|-------|---------------------|
G|----------------------------------|-------|---------------------|
B|-1h3-33-1h3-33-1h3-33--3-x-x-1-3--|---x-x-|---------------------|
e|----------------------1-----------|-3-----|-3/5-6xx-5xx-6xx-5xx-|
     todo lo de arriba x2

Puente
        x2
D|-00-88-00-88-3---|--0--|
A|-00-88-00-88-3-3-|--0--|al final solo le quitas
D|-00-88-00-88-3-5-|--0--|esto
G|---------------5-|-----|
B|-----------------|-----|
e|-----------------|-----|

Final[despues del coro]
                               x2
D|--------------------------------------------------------------|
A|-8------7/8--7--8------3333-7/8--7-8------333-7/8------10-----|
D|-x-(x8)-x-x--x--x-(x2)-xxxx-x-x--x-x-(x2)-xxx-x-x-(x2)-x-(x8)-|
G|-10-----9/10-9--10-----5555-9/10-9-10-----555-9/10-----12-----|
B|--------------------------------------------------------------|
e|--------------------------------------------------------------|

despues..
D|-00-88-00-88-3---|
A|-00-88-00-88-3-3-|
D|-00-88-00-88-3-5-|
G|---------------5-|
B|-----------------|
e|-----------------|

ii eso es todo para mi esta 99.9% correcto
dudas,comentarios

--->*
Compositor no encontrado.
34 vistas
    • ½ Tono
    • A
    • Bb
    • B
    • C
    • Db
    • D
    • Eb
    • E
    • F
    • F#
    • G
    • Ab
  • Agregar a la lista

    0 comentarios

    Ver todos los comentarios

    ¿Lograste tocar?

    0 Tocaron 0 Aún no

    ¡Graba un video tocando Getting Away y envíanoslo!

    00:00 / 00:00
    Otros videos de esta canción
    Repetir Calidad Automático
    Otros videos de esta canción
    00:00 / 00:00
    Automático
    OK