Cifra Club

Lo que tus sueños cuentan

QBO

Cifrado: Principal (guitarra y guitarra eléctrica)
tono: C
   [intro]x2      (con un delay)
E|-13-13h12h13h12----------------|
B|----------------13-------------|
G|-------------------14----------|
D|-------------------------------|
A|-------------------------------|
E|-------------------------------|

E|-------------------------------|
B|-------------------------------|
G|-------------------------------|
D|-2-0-0-3--0-0-0-2-0-0-5--0-0-0-| x4
A|-2-0-0-3--0-0-0-2-0-0-5--0-0-0-|
E|-2-0-0-3--0-0-0-2-0-0-5--0-0-0-|

E|--------------p.| m.-----------------|
B|----------------------------------------|
G|----------------------------------------|
D|----------------------------------------|
A|-0-0--0-0-3-3-0--0-0--0-0-3-3-0-2-2-0---|
E|-0-0--0-0-3-3-0--0-0--0-0-3-3-0-2-2-0---|
E|-0-0--0-0-3-3-0--0-0--0-0-3-3-0-2-2-0---|

E|---------------p.| m.-----------------|
B|----------------------------------------|
G|----------------------------------------|
D|----------------------------------------|
A|-0-0--0-0-3-3-0--8-8--8-8-7-7-7--5-5-5--| x2
E|-0-0--0-0-3-3-0--8-8--8-8-7-7-7--5-5-5--|
E|-0-0--0-0-3-3-0--8-8--8-8-7-7-7--5-5-5--|
    'No encuentras salidas'...

E|-------------------------------|
B|-------------------------------|
G|-------------------------------|
D|-2-0-0-3--0-0-0-2-0-0-5--0-0-0-| x2
A|-2-0-0-3--0-0-0-2-0-0-5--0-0-0-|
E|-2-0-0-3--0-0-0-2-0-0-5--0-0-0-|

E|--------------p.| m.-----------------|
B|----------------------------------------|
G|----------------------------------------|
D|----------------------------------------|
A|-0-0--0-0-3-3-0--0-0--0-0-3-3-0-2-2-0---|
E|-0-0--0-0-3-3-0--0-0--0-0-3-3-0-2-2-0---|
E|-0-0--0-0-3-3-0--0-0--0-0-3-3-0-2-2-0---|

E|---------------p.| m.-----------------|
B|----------------------------------------|
G|----------------------------------------|
D|----------------------------------------|
A|-0-0--0-0-3-3-0--8-8--8-8-7-7-7--5-5-5--| x2
E|-0-0--0-0-3-3-0--8-8--8-8-7-7-7--5-5-5--|
E|-0-0--0-0-3-3-0--8-8--8-8-7-7-7--5-5-5--|
   'Ahora en silencio'...

    [coro]x2
E|----------------------------------------|
B|----------------------------------------|
G|---------5-------3--------2-------------|
D|-0-------5-------3--------2-------------|
A|-0-------3-------1--------0-------------|
E|-0--------------------------------------|
   'Busca ya, el lugar'...

E|--------------p.| m.-----------------|
B|----------------------------------------|
G|----------------------------------------|
D|----------------------------------------|
A|-0-0--0-0-3-3-0--0-0--0-0-3-3-0-2-2-0---|
E|-0-0--0-0-3-3-0--0-0--0-0-3-3-0-2-2-0---|
E|-0-0--0-0-3-3-0--0-0--0-0-3-3-0-2-2-0---|

E|---------------p.| m.-----------------|
B|----------------------------------------|
G|----------------------------------------|
D|----------------------------------------|
A|-0-0--0-0-3-3-0--8-8--8-8-7-7-7--5-5-5--| x2
E|-0-0--0-0-3-3-0--8-8--8-8-7-7-7--5-5-5--|
E|-0-0--0-0-3-3-0--8-8--8-8-7-7-7--5-5-5--|
   'Me dices que el tiempo'...

    [coro]x2
E|----------------------------------------|
B|----------------------------------------|
G|---------5-------3--------2-------------|
D|-0-------5-------3--------2-------------|
A|-0-------3-------1--------0-------------|
E|-0--------------------------------------|
    'Y buscar, el lugar'...

E|-------|
B|-------|
G|-*-----|
D|-0--0--| x2
A|-0--0--|
E|-0--0--|

E|----------------------------------------|
B|----------------------------------------|
G|------*-*--------*-*--------*-*---------|
D|-0-0--0-0-3-0-0--0-0-3-0-0--0-0-3-0-0-3-| x2
A|-0-0--0-0-3-0-0--0-0-3-0-0--0-0-3-0-0-3-|
E|-0-0--0-0-3-0-0--0-0-3-0-0--0-0-3-0-0-3-|

   [solo]
E|-13-12------------13-12-----------------|
B|-------13-15------------13-15-------13--|
G|-------------14---------------14-12-----|
D|----------------------------------------|
A|----------------------------------------|
E|----------------------------------------|

E|-13-13----15----15h17h15-15-------------------------|
B|-------13----15-------------15h17h15-15-13-12-12h13-|
G|----------------------------------------------------|
D|----------------------------------------------------|
A|----------------------------------------------------|
E|----------------------------------------------------|

    [coro]x4
E|----------------------------------------|
B|----------------------------------------|
G|---------5-------3--------2-------------|
D|-0-------5-------3--------2-------------|
A|-0-------3-------1--------0-------------|
E|-0--------------------------------------|
   'Y buscar el lugar'...
E|-------|
B|-------|
G|-*-----|
D|-0--0--|
A|-0--0--|
E|-0--0--|
Compositor no encontrado.
2 vistas
    • ½ Tono
    • A
    • Bb
    • B
    • C
    • Db
    • D
    • Eb
    • E
    • F
    • F#
    • G
    • Ab
  • Agregar a la lista

    0 comentarios

    Ver todos los comentarios

    ¿Lograste tocar?

    0 Tocaron 0 Aún no

    ¡Graba un video tocando Lo que tus sueños cuentan y envíanoslo!

    00:00 / 00:00
    Otros videos de esta canción
    Repetir Calidad Automático
    Otros videos de esta canción
    00:00 / 00:00
    Automático
    OK