Cifra Club

Lo Siento

QBO

Cifrado: Principal (guitarra y guitarra eléctrica)
tono: G
(intro 2x)

E|-----------------------------------------------------------|
B|------9-9-9-9/11--6-6-6/9----------6-6-6-6/9--4-4-4--------|
G|-----------------------------------------------------------|
D|-0--0-------------------------0--0-------------------------|
A|-0--0-------------------------0--0-------------------------|
D|-0--0-------------------------0--0-------------------------|

E|-------------4---5---4-------------------4---5---4---------|
B|-----------5---5---5---5---------------5---5---5---5-------|
G|-----------------------------------------------------------|
D|-0--2--4---------------------0--2--4-----------------------|
A|-0--2--4---------------------0--2--4-----------------------|
D|-0--2--4---------------------0--2--4-----------------------|

(verso 1)
E|--------------------------|
B|--------------------------|
G|--------------------------|
D|-4-------7-------0--------|   (2x)
A|-4-(16x)-7-(16x)-0-(32x)--|
D|-4-------7-------0--------|

(pré-refrão)
E|-----------------------------------------------------------|
B|-----------------------------------------------------------|
G|-----------------------------------------------------------|
D|-7~~~~~~~~~~~~~~~~~-6~~~~~~~~~~~~~~~~~~~~~~~~~-------------|
A|-7~~~~~~~~~~~~~~~~~-7~~~~~~~~~~~~~~~~~~~~~~~~~-------------|
D|-7~~~~~~~~~~~~~~~~~-6~~~~~~~~~~~~~~~~~~~~~~~~~-------------|

E|-----------------------------------------------------------|
B|-----------------------------------------------------------|
G|-----------------------------------------------------------|
D|-0~~~~~~~~~~~~~~~~~~~~~~~~--0-0---0--0-0-0--0-0-0--0-0-0---|
A|-0~~~~~~~~~~~~~~~~~~~~~~~~--0-0---0--0-0-0--0-0-0--0-0-0---|
D|-0-~~~~~~~~~~~~~~~~~~~~~~~--0-0---0--0-0-0--0-0-0--0-0-0---|

E|-----------------------------------------------------------|
B|-----------------------------------------------------------|
G|-----------------------------------------------------------|
D|-7~~~~~~~~~~~~~~~~~-6~~~~~~~~~~~~~~~~~~~~~~~~~-------------|
A|-7~~~~~~~~~~~~~~~~~-7~~~~~~~~~~~~~~~~~~~~~~~~~-------------|
D|-7~~~~~~~~~~~~~~~~~-6~~~~~~~~~~~~~~~~~~~~~~~~~-------------|

E|-----------------------------------------------------------|
B|-----------------------------------------------------------|
G|-----------------------------------------------------------|
D|-0~~~~~~~~~~~~~~~~~~~~~~~~~~~--0-0---0--0-0-0--------------|
A|-0~~~~~~~~~~~~~~~~~~~~~~~~~~~--0-0---0--0-0-0--------------|
D|-0-~~~~~~~~~~~~~~~~~~~~~~~~~~--0-0---0--0-0-0--------------|

(refrão 2x)
E|-----------------------------------------------------------|
B|-----------------------------------------------------------|
G|----------9/11/9--9--------------------9/11/9--9-----------|
D|-0-0-0-0--x/x-/x--x-----------0-0-0-0--x/x-/x--x-----------|
A|-0-0-0-0--7/9-/7--7-----------0-0-0-0--7/9-/7--7-----------|
D|-0-0-0-0----------------------0-0-0-0----------------------|

E|-----------------------------------------------------------|
B|-----------------------------------------------------------|
G|-----------------------------------------------------------|
D|-2--4-4-4-4-4-4--7-7-7--2-2-2------------------------------|
A|-2--4-4-4-4-4-4--7-7-7--2-2-2------------------------------|
D|-2--4-4-4-4-4-4--7-7-7--2-2-2------------------------------|

(pós-refrão)
E|-----4---4-----4-----4---4---5/-------------------------|
B|-5-5---5---5-5---5-5---5---5-5/-------------------------|
G|--------------------------------------------------------|
D|--------------------------------------------------------|
A|--------------------------------------------------------|
D|--------------------------------------------------------|

(verso 2)
E|--------------------------|
B|--------------------------|
G|--------------------------|
D|-4-------7-------0--------|   (2x)
A|-4-(16x)-7-(16x)-0-(32x)--|
D|-4-------7-------0--------|

(pré-refrão)
E|-----------------------------------------------------------|
B|-----------------------------------------------------------|
G|-----------------------------------------------------------|
D|-7~~~~~~~~~~~~~~~~~-6~~~~~~~~~~~~~~~~~~~~~~~~~-------------|
A|-7~~~~~~~~~~~~~~~~~-7~~~~~~~~~~~~~~~~~~~~~~~~~-------------|
D|-7~~~~~~~~~~~~~~~~~-6~~~~~~~~~~~~~~~~~~~~~~~~~-------------|

E|-----------------------------------------------------------|
B|-----------------------------------------------------------|
G|-----------------------------------------------------------|
D|-0~~~~~~~~~~~~~~~~~~~~~~~~~~~--0-0---0--0-0-0--------------|
A|-0~~~~~~~~~~~~~~~~~~~~~~~~~~~--0-0---0--0-0-0--------------|
D|-0-~~~~~~~~~~~~~~~~~~~~~~~~~~--0-0---0--0-0-0--------------|

E|-----------------------------------------------------------|
B|-----------------------------------------------------------|
G|-----------------------------------------------------------|
D|-7~~~~~~~~~~~~~~~~~-6~~~~~~~~~~~~~~~~~~~~~~~~~-------------|
A|-7~~~~~~~~~~~~~~~~~-7~~~~~~~~~~~~~~~~~~~~~~~~~-------------|
D|-7~~~~~~~~~~~~~~~~~-6~~~~~~~~~~~~~~~~~~~~~~~~~-------------|

E|-----------------------------------------------------------|
B|-----------------------------------------------------------|
G|-----------------------------------------------------------|
D|-0~~~~~~~~~~~~~~~~~~~~~~~~--0-0---0--0-0-0--0-0-0--0-0-0---|
A|-0~~~~~~~~~~~~~~~~~~~~~~~~--0-0---0--0-0-0--0-0-0--0-0-0---|
D|-0-~~~~~~~~~~~~~~~~~~~~~~~--0-0---0--0-0-0--0-0-0--0-0-0---|

(refrão 2x)
E|-----------------------------------------------------------|
B|-----------------------------------------------------------|
G|----------9/11/9--9--------------------9/11/9--9-----------|
D|-0-0-0-0--x/x-/x--x-----------0-0-0-0--x/x-/x--x-----------|
A|-0-0-0-0--7/9-/7--7-----------0-0-0-0--7/9-/7--7-----------|
D|-0-0-0-0----------------------0-0-0-0----------------------|

E|-----------------------------------------------------------|
B|-----------------------------------------------------------|
G|-----------------------------------------------------------|
D|-2--4-4-4-4-4-4--7-7-7--2-2-2------------------------------|
A|-2--4-4-4-4-4-4--7-7-7--2-2-2------------------------------|
D|-2--4-4-4-4-4-4--7-7-7--2-2-2------------------------------|

(pós-refrão)
|--------------------------|
|--------------------------|
|--------------------------|
|-4------------------------|
|-4------------------------|
|-4------------------------|

(ponte 2x)
E|-4-4-4-4-4-4-0-0-0-0-0-0-5-5-5-5---------------------------|
B|-5-5-5-5-5-5-5-5-5-5-5-5-5-5-5-5---------------------------|
G|-----------------------------------------------------------|  (3x)
D|-----------------------------------------------------------|
A|-----------------------------------------------------------|
D|-----------------------------------------------------------|

E|-4-4-4-0-0-0-0-0--0---0--0---0---0-------------------------|
B|-5-5-5-5-5-5-5-5--5/9-9--10--8/9-9-------------------------|
G|-----------------------------------------------------------|
D|-----------------------------------------------------------|
A|-----------------------------------------------------------|
D|-----------------------------------------------------------|

(refrão 2x)
E|-----------------------------------------------------------|
B|-----------------------------------------------------------|
G|----------9/11/9--9--------------------9/11/9--9-----------|
D|-0-0-0-0--x/x-/x--x-----------0-0-0-0--x/x-/x--x-----------|
A|-0-0-0-0--7/9-/7--7-----------0-0-0-0--7/9-/7--7-----------|
D|-0-0-0-0----------------------0-0-0-0----------------------|

E|-----------------------------------------------------------|
B|-----------------------------------------------------------|
G|-----------------------------------------------------------|
D|-2--4-4-4-4-4-4--7-7-7--2-2-2------------------------------|
A|-2--4-4-4-4-4-4--7-7-7--2-2-2------------------------------|
D|-2--4-4-4-4-4-4--7-7-7--2-2-2------------------------------|

(outro 2x)
E|-----------------------------------------------------------|
B|-------5------5------5----6--------------------------------|
G|-------4------4------4----4--------------------------------|
D|-----------------------------------------------------------| (2x)
A|-0-0-0----0-0----0-0----0----------------------------------|
D|-0-0-0----0-0----0-0----0----------------------------------|

E|-----------------------------------------------------------|
B|-5-5-5-5--5-5-5--5-5-5--5-6--------------------------------|
G|-4-4-4-4--4-4-4--4-4-4--4-4--------------------------------|
D|-----------------------------------------------------------| (2x)
A|-----------------------------------------------------------|
D|-----------------------------------------------------------|
Composición de QBO
Colaboración y revisión:
  • Jefferson Sousa
155 vistas
    • ½ Tono
    • A
    • Bb
    • B
    • C
    • Db
    • D
    • Eb
    • E
    • F
    • F#
    • G
    • Ab
  • Agregar a la lista

    0 comentarios

    Ver todos los comentarios

    ¿Lograste tocar?

    0 Tocaron 0 Aún no

    ¡Graba un video tocando Lo Siento y envíanoslo!

    00:00 / 00:00
    Otros videos de esta canción
    Repetir Calidad Automático
    Otros videos de esta canción
    00:00 / 00:00
    Automático
    OK