Cifra Club

Mi chica ideal

QBO

Cifrado: Principal (guitarra y guitarra eléctrica)
tono: F
INTRO

       D5              Bb5            F5              C5
E|--------------/---------------/---------------/----------------|
B|----------3---/----------3----/----------3----/----------3-1---|
G|----1-2-----2-/----1-2-----2--/----1-2-----2--/----0-1-2-----0-|
D|--0-----0-----/---------------/---------------/----------------|
A|--------------/--1-----1------/---------------/--3-------------|
E|--------------/---------------/--1-----1------/----------------|


D5             Bb5
Quise emprender  el viaje
F5         C5
Aun sin rumbo fijo
D5         Bb5
Andar  sin equipaje
F5        C5
Solo hambre y  abrigo

E|------|
[Es como volver a empesar]
D5                Bb5
Yo solo trato de seguir

[Es como volver a empesar]
F5                   C5
Entrar al juego pero no morir
D5               Bb5
Yo solo trato de seguir

[Es como volver a empezar]
F5                   C5
Doblar las reglas y poder salir

E|-----|
D5       Bb5
Pienso a cada momento
F5          C5
En ti como un recuerdo
D5       Bb5
Atrapa mis sentidos
F5       C5
Atraviesa, Mi cuerpo

E|-----|

D5                Bb5
Yo solo trato de seguir
[Es como volver a empesar]
F5                   C5
Entrar al juego pero no morir
D5               Bb5
Yo solo trato de seguir

[Es como volver a empezar]
F5                   C5
Doblar las reglas y poder salir

D5                Bb5
Yo solo trato de seguir
[Es como volver a empesar]
F5                   C5
Entrar al juego pero no morir
D5               Bb5
Yo solo trato de seguir

[Es como volver a empezar]
F5                   C5
Doblar las reglas y poder salir

[Es como volver a empesar]
[Es como volver a empesar]
[Es como volver a empesar]


acordes:
    D5     Bb5     F5      C5
E|-------/-------/-------/-------|
B|-------/-------/-------/-------|
G|---7---/-------/-------/---5---|
D|---7---/---8---/---3---/---5---|
A|---5---/---8---/---3---/---3---|
E|-------/---6---/---1---/-------|
Compositor no encontrado.
3 vistas
    • ½ Tono
    • A
    • Bb
    • B
    • C
    • Db
    • D
    • Eb
    • E
    • F
    • F#
    • G
    • Ab
  • Agregar a la lista

    0 comentarios

    Ver todos los comentarios

    ¿Lograste tocar?

    0 Tocaron 0 Aún no

    ¡Graba un video tocando Mi chica ideal y envíanoslo!

    00:00 / 00:00
    Otros videos de esta canción
    Repetir Calidad Automático
    Otros videos de esta canción
    00:00 / 00:00
    Automático
    OK