Cifra Club

No pude imaginar

QBO

Cifrado: Principal (guitarra y guitarra eléctrica)
tono: Em
E|--7----7----7-7----10-7---7-----7-----7-7------------|
B|----8----8------8-------8---8-----8-------8-----8----|
G|------9----9------9-----------9-----9-------9-9------|
D|-----------------------------------------------------|
A|-----------------------------------------------------|
E|-----------------------------------------------------|

Em           G
  solo al final
             Em
pude comprender que esto
             G
es solo un juego por pasar
Em        G                       Em
  y recordar que desde el primer dia
                G         C
supe lo que hacia y aun asi
    D     Em
pense en ti
    G              C
en lo que es para mi
   D       Em
estar sin ti
     D                  G
sin lo que me hace sentir
         D           Em
te buscare en cada lugar
                C         G
que pueda el tiempo recordar
         D           Em
y al renacer ahi estara
            C
siempre pensando en regresar.


Em         G                   Em
  Solo pensar te tuve en mis brazos
           G           Em
y te he dejado escapar
     G        Em
no pude imaginar
      G
que iba a terminar
C       D     Em
no, podre vivir
       D              G
si no logro llegar a ti
         D           Em
te buscare en cada lugar
               C          G
que pueda el tiempo recordar
         D           Em
y al renacer ahi estara
            C                G
siempre pensando en regresar

A E .

NOTA: Aqui hay un paron y toca un requinto.


E|----10---7---10---7--| X9
B|--8----8---8----8----|
G|---------------------|
D|---------------------|
A|---------------------|
E|---------------------|

Cuando esta en este requinto el bajo hace esto

E|------------------------------------|
B|------------------------------------|
G|-7------5-----------------5---------|
D|----------3-------0---------3-------|

Despues hay un solo con quintas:

es quinta de D (5to traste 5ta cuerda y 7 traste 4ta cuerda)
quinta de E (7 traste 5ta cuerda y 9 traste 4ta cuerda)
quinta de C (3er traste 5ta cuerta 5to traste 4ta cuerda)

y queda: D-E-D-E-C X4

Y eso es todo.

Espero que les sirva mi explicacion por cualquier
duda ahi esta mi correo
suerte.
Composición de Demasiado Amor/Tonio, Maxz, Tarro
    • ½ Tono
    • Am
    • Bbm
    • Bm
    • Cm
    • C#m
    • Dm
    • Ebm
    • Em
    • Fm
    • F#m
    • Gm
    • G#m
  • Agregar a la lista

    0 comentarios

    Ver todos los comentarios

    ¿Lograste tocar?

    0 Tocaron 0 Aún no

    ¡Graba un video tocando No pude imaginar y envíanoslo!

    00:00 / 00:00
    Otros videos de esta canción
    Repetir Calidad Automático
    Otros videos de esta canción
    00:00 / 00:00
    Automático
    OK