Cifra Club

One Last Time

QBO

Cifrado: Principal (guitarra y guitarra eléctrica)
tono: D
(intro 2x)
E|-------------------------------|
B|--------------------5----------|
G|-----5----5----5-----5---------|
D|----5-5--5-5--5-5--------------|
A|---3----3----3----3------------|
D|-------------------------------|

E|---------------------------------------------|
B|---------------------------------------------|
G|---------------------------------------------|
D|-000--2-0-3--000--2-0-3--333333---5---3p2p0--|
A|-000---------000---------333333---5---3p2p0--|
D|-000---------000---------333333---5---3p2p0--|
  ...    .    ...    .

(verso) (0:31)
E|----------------|
B|----------------|
G|----------------|
D|-00----00-------|
A|-00----00-------|
D|-00----00-------|

(0:40)
E|--------------------------------------|
B|--------------------------------------|
G|----555------555------555------555----|
D|-00-xxx--00--xxx--33--xxx--55--xxx----| (2x)
A|-00-333--00--333--33--333--55--333----|
D|-00------00-------33-------55---------|

(0:50)
E|-------------------------------|
B|-------------------------------|
G|-------------------------------| (2x)
D|-00000--00000-0h3333--3h55555--|
A|-00000--00000-0h3333--3h55555--|
D|-00000--00000-0h3333--3h55555--|

(refrão 2x)
E|----------------------------------------|
B|----------------------------------------|
G|----------------------------5xxx5xx5----|
D|-000000--8888888---22-22-22-5xxx5xx5----|
A|-000000--8888888---22-22-22-3xxx3xx3----|
D|-000000--8888888---22-22-22-------------|

(verso)

(refrão alternativo) (2:17)
E|-----------------------------------------------|
B|-----10-10-----------10-10-----------10-10-----|
G|----------10-10-----------10-10----------10-10-|
D|-000-------------888-------------333-----------|
A|-000-------------888-------------333-----------|
D|-000-------------888-------------333-----------|

(ponte) (2:36)
E|-------------------------------|
B|-------------------------------|
G|-------------------------------| (2x)
D|-00000--00000-0h3333--3h55555--|
A|-00000--00000-0h3333--3h55555--|
D|-00000--00000-0h3333--3h55555--|
Compositor no encontrado.
Colaboración y revisión:
  • Jefferson Sousa
24 vistas
    • ½ Tono
    • A
    • Bb
    • B
    • C
    • Db
    • D
    • Eb
    • E
    • F
    • F#
    • G
    • Ab
  • Agregar a la lista

    0 comentarios

    Ver todos los comentarios

    ¿Lograste tocar?

    0 Tocaron 0 Aún no

    ¡Graba un video tocando One Last Time y envíanoslo!

    00:00 / 00:00
    Otros videos de esta canción
    Repetir Calidad Automático
    Otros videos de esta canción
    00:00 / 00:00
    Automático
    OK