Cifra Club

Solo Por Ti

QBO

Cifrado: Principal (guitarra y guitarra eléctrica)
tono: G
(intro)

E|--------------------------------------------|
B|--------------------------------------------|
G|--------------------------------------------|
D|--44444444-00000000-22222222-000000-222222--|
A|--44444444-00000000-22222222-000000-222222--|
D|--44444444-00000000-22222222-000000-222222--|

E|--------------------------------------------|
B|--------------------------------------------|
G|--------------------------------------------|
D|--44444444-00000000-22222222-000000-222222--|
A|--44444444-00000000-22222222-000000-222222--|
D|--44444444-00000000-22222222-000000-222222--|

(guitarra 2)
E|--------------------------------------|
B|--------------------------------------|
G|--666666666666-99999999-444444444444--|
D|--------------------------------------|
A|--------------------------------------|
D|--------------------------------------|

E|-------------------------------------------------------------------|
B|----777---77---7----333---33---3----555---55---5-----555---55---5--|
G|----666---66---6----222---22---2----444---44---4-----444---44---4--|
D|--4-----4----4----0-----0----0----2-----2----2-----2-----2----2----|
A|--4-----4----4----0-----0----0----2-----2----2-----2-----2----2----|
D|--4-----4----4----0-----0----0----2-----2----2-----2-----2----2----|

(verso)
E|--------------------------------------|
B|--------------------------------------|
G|--------------------------------------|
D|--111111111111--777777--999999--7•/9--|
A|--9-9-9-9-9-9---555555--777777--5•/7--| (2x)
D|--------------------------------------|

(ponte)
E|---------------------------------------|
B|---------------------------------------|
G|-----6--------9------------------6-----|
D|---7--7-7---7--7-7---7-9---7---7--7-7--|
A|--9-9--9---5-5--5---7-7-7-7---5-5--5---|x2
D|---------------------------------------|

(refrão)
E|----------------|
B|----------------|
G|----------------|
D|-7-7-6-6-4-4-6--|
A|----------------|
D|----------------|

E|----------------------------------------|
B|----------------------------------------|
G|----------------------------------------|
D|--44444444-44--000xx000-00-222xx222-22--|
A|--44444444-44--000xx000-00-222xx222-22--|
D|--44444444-44--000xx000-00-222xx222-22--|

E|-----------------------------------------------------------|
B|-----------------------------------------------------------|
G|-----------------------------------------------------------|
D|--44444444-44--00000000-00--222xx222-22--000000-222222-4•--|
A|--44444444-44--00000000-00--222xx222-22--000000-222222-4•--|
D|--44444444-44--00000000-00--222xx222-22--000000-222222-4•--|

Solo por ti es por quien vivo y muero así.
Solo por ti es por quien quiero mi vida seguir.

(verso 2)
E|--------------------------------------|
B|--------------------------------------|
G|--------------------------------------|
D|--111111111111--777777--999999--7•/9--|
A|--9-9-9-9-9-9---555555--777777--5•/7--|
D|--------------------------------------|

E|------------------------------------------------|
B|------------------------------------------------|
G|------------------------------------------------|
D|--111111111111-6-7--777777-7-6--999999----7•/9--|
A|--9-9-9-9-9-9-------555555------777777-7--5•/7--|
D|------------------------------------------------|

(refrão)

(solo)
E|--------------------------------------------------------------------|
B|--------------------------------------------------------------------|
G|--------------------------------------------------------------------|
D|--------------------------------------------------------------------|
A|--9-7-9-7-9-7-9-7-9/12-11-12-11-12-11-12-11-7-6-7-6-7-6-7•-7-5-4-5--|
D|--------------------------------------------------------------------|

Pertenezco a ti
E|------------------------------------------------------------------
B|------------------------------------------------------------------
G|------------------------------------------------------------------
D|------------------------------------------------------------------
A|--9-7-9-7-9-7-9-7-9/12-11-12-11-12-11-12-11-12-11-12-11-12-11-12--
D|------------------------------------------------------------------

-------------------------------|
-------------------------------|
-------------------------------|
-------------------------------|
--12-12-12-12-11-11-11-11-12•--|
-------------------------------|

(4x)
E|----------------------------------------------------------
B|----------------------------------------------------------
G|--14-14-14-14-14-14-14-14-14-14--16-16-16-16-16-16-16-16--
D|----------------------------------------------------------
A|----------------------------------------------------------
D|----------------------------------------------------------

-----------------------------------------|
--17-17-17-17-17-17--14-14-14-14---------|
----------------------------------16-16--|
-----------------------------------------|
-----------------------------------------|
-----------------------------------------|

(refrão)

(outro)
E|-------------------------------------------------------------------|
B|----777---77---7----333---33---3----555---55---5-----555---55---5--|
G|----666---66---6----222---22---2----444---44---4-----444---44---4--|
D|--4-----4----4----0-----0----0----2-----2----2-----2-----2----2----|
A|--4-----4----4----0-----0----0----2-----2----2-----2-----2----2----|
D|--4-----4----4----0-----0----0----2-----2----2-----2-----2----2----|

E|-----------------------------------------------------------|
B|-----------------------------------------------------------|
G|--666666666666-99999999-444444444444444444-44h2hx (delay)--|
D|-----------------------------------------------------------|
A|-----------------------------------------------------------|
D|-----------------------------------------------------------|
Composición de ¿?
Colaboración y revisión:
  • Jefferson Sousa
94 vistas
    • ½ Tono
    • A
    • Bb
    • B
    • C
    • Db
    • D
    • Eb
    • E
    • F
    • F#
    • G
    • Ab
  • Agregar a la lista

    0 comentarios

    Ver todos los comentarios

    ¿Lograste tocar?

    0 Tocaron 0 Aún no

    ¡Graba un video tocando Solo Por Ti y envíanoslo!

    00:00 / 00:00
    Otros videos de esta canción
    Repetir Calidad Automático
    Otros videos de esta canción
    00:00 / 00:00
    Automático
    OK