Cifra Club

Tu Sombra

QBO

Cifrado: Principal (guitarra y guitarra eléctrica)
tono: G
(intro)

---------------------------------
---------------------------------
------8--7--------8--7-----------
----------8--8--------5--5-------
---------------------------------
---------------------------------

--------------------------------------
-16-15-------------16-15--------------
------14----------------14-15-17-16--- (2x)
--------15-(16)-----------------------
--------------------------------------
--------------------------------------

(verso 1)
p.m

hoy te observo, a cada paso
cada momento

---------------------------------
-16-15---------------------------
------14-------------------------
---------------------------------
---------------------------------
---------------------------------

(pré-refrão)

---------------------------
---------------------------
---8--7---------8--7-------
-------8--8---------5--5--
---------------------------
---------------------------
estoy aqui , tan cerca

(refrão)
tienes que volver a mi , no quiero acabar asi
y no puedo estar sin ti...
se que puedes oir
-----------------------------------------------------------------
-----------------------------------------------------------------
----------------------------------------------------------------- (2x)
7/1010101010888-7/1010101010888-71010101010888-7/10101010100000--
7/1010101010888-7/1010101010888-71010101010888-7/10101010100000--
-----------------------------------------------------------0000--

--------------------------------------
-16-15-------------16-15--------------
------14----------------14-15-17-16--- (2x)
--------15-(16)-----------------------
--------------------------------------
--------------------------------------

(verso 2)
p.m

esto todo el verso

soy tu sombra, soy tu sueños
soy quien puede,

---------------------------------
-16-15---------------------------
------14-------------------------
---------------------------------
---------------------------------
---------------------------------
estar siemp're por ti:

tienes que volver a mi , no quiero acabar asi
y no puedo estar sin ti...
sabes que estoy aqui

------------------------------------------------------------------
-----------------------------------------------------------------
----------------------------------------------------------------- (2x)
00007/1010101010888-7/1010101010888-71010101010888-7/10101010100000--
00007/1010101010888-7/1010101010888-71010101010888-7/10101010100000--
0000-----------------------------------------------------------0000---
despues del coro se toca:

-------------------------------------
-------------------------------------
--------------------------------------
9\4x4x4x4--449\4x4x4x4--449\4x4x4x4--449\4x4x4x4---------------
9\4x4x4x4--449\4x4x4x4--449\4x4x4x4--449\4x4x4x4-------------------
7\2x2x2x2--227\2x2x2x2--227\2x2x2x2--227\2x2x2x2--------------------

(solo) (escuchen bien esta parte para k les salgan bien los bends y los silencios k lleva)

---------------------------------------------------------------
---------------------------------------------------------------
---------------------------------------------------------------
12/16-16b-16b-14-15-15-15--14-14\13-14\13-14\13--16b15b--------
---------------------------------------------------------------
---------------------------------------------------------------

---------------------------------------------------------------
---------------------------------------------------------------
-----------------------------------------------15bb------------
12\16-16b-16b-15-15--14x14x14x-14-15------14-15----14----------
------------------------------------16b16b-----------16.-------
---------------------------------------------------------------
algo asi masomenos hay partes k no se alcanzan a escuchar mu bien por algunos efectos
pero suena chido asi como me quedo...

en cuanto acaba el solo va esto:

no me niegues, no me ocultes
ya lo sabes
-----------------------------------------
-----------------------------------------
------8--7--------8--7---------8--7------
----------8--8--------8--8---------5--5--
-----------------------------------------
-----------------------------------------

sigo aqui !!!

tienes que volver a mi , no quiero acabar asi
y no puedo estar sin ti...

---------------------------------------------------------------------
---------------------------------------------------------------------
---------------------------------------------------------------------
00007/1010101010888-7/1010101010888-71010101010888-7/10101010100000--
00007/1010101010888-7/1010101010888-71010101010888-7/10101010100000--
0000-----------------------------------------------------------0000--


---------------------------------------------------------------------
---------------------------------------------------------------------
---------------------------------------------------------------------
7/1010101010888-7/1010101010888-71010101010888-7/1010101010099-------
7/1010101010888-7/1010101010888-71010101010888-7/1010101010099-------
-----------------------------------------------------------077-------
tienes que volver a mi , no quiero acabar asi
y no puedo estar sin ti
se que puedes oir

---------------------------------------------------------------------
---------------------------------------------------------------------
--------------------------------------------------------------------- (2x)
7/1010101010888-7/1010101010888-71010101010888-7/10101010100000------
7/1010101010888-7/1010101010888-71010101010888-7/10101010100000------
-----------------------------------------------------------0000------

(final)
-----------------
-----------------
---5-5-----------
-7-----7--------- (4x)
-----------------
-----------------
Composición de Qbo/Single
Colaboración y revisión:
  • Jefferson Sousa
25 vistas
    • ½ Tono
    • A
    • Bb
    • B
    • C
    • Db
    • D
    • Eb
    • E
    • F
    • F#
    • G
    • Ab
  • Agregar a la lista

    0 comentarios

    Ver todos los comentarios

    ¿Lograste tocar?

    0 Tocaron 0 Aún no

    ¡Graba un video tocando Tu Sombra y envíanoslo!

    00:00 / 00:00
    Otros videos de esta canción
    Repetir Calidad Automático
    Otros videos de esta canción
    00:00 / 00:00
    Automático
    OK