Cifra Club

Vivir Muriendo

QBO

Cifrado: Principal (guitarra y guitarra eléctrica)
tono: G
(intro e refrão)
--------------------------------------------------------
--------------------------------------------------------
--------------------------------------------------------
-9-9-9-9-9-10-9-9-9-9-9-9-10—9-9-9-9-9-10-9-9-9\7-7-7---
-9-9-9-9-9-10-9-9-9-9-9-9-10-9-9-9-9-9-10-9-9-9\7b7b7b--
-7-7-7-7-7—8--7-7-7-7-7-7--8-7-7-7-7-7--8-7-7-7\5b5b5b--

(verso)
--------------------------------
--------------------------------
--------------------------------
-7------10-12-10/12\10----------   (2x)
--------------------------------
--------------------------------

(pré-refrão)
--------------------------------
--------------------------------
--------------------------------
7/10-7-7-7-7-10-7--5-5-5-5-10-7-
7/10-7-7-7-7-10-7--5-5-5-5-10-7-
5/8--5-5-5-5-8--5--3-3-3-3--8-5-

-7-7-7-7-10-7-5-5-5-5-5-7/10
-7-7-7-7-10-7-5-5-5-5-5-7/10
-5-5-5-5--8-5-3-3-3-3-3-5/-8

(refrão)
--------------------------------------------------------
--------------------------------------------------------
-------------------------------------------------------- (2x)
-9-9-9-9-9-10-9-9-9-9-9-9-10—9-9-9-9-9-10-9-9-9\7-7-7---
-9-9-9-9-9-10-9-9-9-9-9-9-10-9-9-9-9-9-10-9-9-9\7b7b7b--
-7-7-7-7-7—8--7-7-7-7-7-7--8-7-7-7-7-7--8-7-7-7\5b5b5b--

--------------------------------
--------------------------------
--------------------------------
-7------10-12-14\15/14b\5-------
--------------------------------
--------------------------------

Luego de esto sigue la parte con puro bajo
Después de " y no me arrepiento” sigue esto

--------------------------------
--------------------------------
--------------------------------
-7------10-12-14\15/14----------
--------------------------------
--------------------------------

(pré-refrão)
--------------------------------
--------------------------------
--------------------------------
7/10-7-7-7-7-10-7--5-5-5-5-10-7-
7/10-7-7-7-7-10-7--5-5-5-5-10-7-
5/8--5-5-5-5-8--5--3-3-3-3--8-5-

----------------------------
----------------------------
----------------------------
-7-7-7-7-10-7-5-5-5-5-5-7/10
-7-7-7-7-10-7-5-5-5-5-5-7/10
-5-5-5-5--8-5-3-3-3-3-3-5/-8

(refrão)
--------------------------------------------------------
--------------------------------------------------------
--------------------------------------------------------    (2x)
-9-9-9-9-9-10-9-9-9-9-9-9-10—9-9-9-9-9-10-9-9-9\7-7-7---
-9-9-9-9-9-10-9-9-9-9-9-9-10-9-9-9-9-9-10-9-9-9\7b7b7b--
-7-7-7-7-7—8--7-7-7-7-7-7--8-7-7-7-7-7--8-7-7-7\5b5b5b--

(ponte)
----------------------------------------------------------
----------------------------------------------------------
----------------------------------------------------------
-10\1-10-10-10-10-10-10-10-10-10-10-10-10-10-10-10-10-10--
----------------------------------------------------------
----------------------------------------------------------

----------------------------------------------------------
----------------------------------------------------------
----------------------------------------------------------
----------------------------------------------------------
101010-0010-10-10-10-10-100010-10-100010-10-10--00--00--00
-------00-----------------00--------00--------------------

Luego de esto sigue la parte con piano

(pré-refrão)
--------------------------------
--------------------------------
--------------------------------
7/10-7-7-7-7-10-7--5-5-5-5-10-7-
7/10-7-7-7-7-10-7--5-5-5-5-10-7-
5/8--5-5-5-5-8--5--3-3-3-3--8-5-

----------------------------
----------------------------
----------------------------
-7-7-7-7-10-7-5-5-5-5-5-7/10
-7-7-7-7-10-7-5-5-5-5-5-7/10
-5-5-5-5--8-5-3-3-3-3-3-5/-8

(refrão)
--------------------------------------------------------
--------------------------------------------------------
-------------------------------------------------------- (2x)
-9-9-9-9-9-10-9-9-9-9-9-9-10—9-9-9-9-9-10-9-9-9\7-7-7---
-9-9-9-9-9-10-9-9-9-9-9-9-10-9-9-9-9-9-10-9-9-9\7b7b7b--
-7-7-7-7-7—8--7-7-7-7-7-7--8-7-7-7-7-7--8-7-7-7\5b5b5b--

(final)
--------------------------------------------------------
--------------------------------------------------------
--------------------------------------------------------
--------------------------------------------------------
0010-10-1000-10-10-100010-10-----00-----00-----00-------
00--------00---------00---------------------------------
Compositor no encontrado.
Colaboración y revisión:
  • Jefferson Sousa
44 vistas
    • ½ Tono
    • A
    • Bb
    • B
    • C
    • Db
    • D
    • Eb
    • E
    • F
    • F#
    • G
    • Ab
  • Agregar a la lista

    0 comentarios

    Ver todos los comentarios

    ¿Lograste tocar?

    0 Tocaron 0 Aún no

    ¡Graba un video tocando Vivir Muriendo y envíanoslo!

    00:00 / 00:00
    Otros videos de esta canción
    Repetir Calidad Automático
    Otros videos de esta canción
    00:00 / 00:00
    Automático
    OK