Cifra Club

Volver a Respirar

QBO

Cifrado: Principal (guitarra y guitarra eléctrica)
tono: G
C|----------------------------------------|
G|----------------------------------------|
E|-----------------------------0-0--------|
B|-2h3p2-2---2h3p2-2---2h3p2-2-----0------| (2x)
F|----------------------------------------|
B|----------------------------------------|

C|----------------------------------------|
G|----------------------------------------|
E|----------------------------------------|
B|-2h3p2-2---2h3p2-2---2h3p2-2--5-5-0-----| (2x)
F|-2h3p2-2---2h3p2-2---2h3p2-2--5-5-0-----|
B|-2h3p2-2---2h3p2-2---2h3p2-2--5-5-0-----|

C|-------------------------------------|
G|-------0--------0--------0-----------|
E|-------0--------0--------0-----------|
B|-2h3p2----2h3p2----2h3p2---5-5-0-----| (2x)
F|-2h3p2----2h3p2----2h3p2---5-5-0-----|
B|-2h3p2----2h3p2----2h3p2---5-5-0-----|

C|---------------|
G|---------------|
E|-----*-*-*-*---|
B|-0h2-2-0-2-0-2-| (4x)
F|-0h2-2-0-2-0-2-|
B|-0h2-2-0-2-0-2-|
    "Escucho”...

(refrão)
                                     |_______(2x)________|
C|---------------------------|---------------------------|
G|----------------------(x3)-|---------------------------|
E|-9-------------------------|-9-------------------------|
B|-9--0--2-2-0-2-0-2-2-0-2-0-|-9--0--2-0-2-0-2-0-2-0-2-0-|
F|-7--0--2-2-0-2-0-2-2-0-2-0-|-7--0--2-0-2-0-2-0-2-0-2-0-|
B|----0--2-2-0-2-0-2-2-0-2-0-|----0--2-0-2-0-2-0-2-0-2-0-|
   "Soñar, despierto”...

C|-----------------------------------|
G|-----------------------------------|
E|-----------------------------------|
B|-2h3p2-2---2h3p2-2---2h3p2-2-5-5-0-| 
F|-----------------------------5-5-0-|
B|-----------------------------5-5-0-|

C|----------------------------------------|
G|----------------------------------------|
E|----------------------------------------|
B|-2h3p2-2---2h3p2-2---2h3p2-2--5-5-0-----| 
F|-2h3p2-2---2h3p2-2---2h3p2-2--5-5-0-----|
B|-2h3p2-2---2h3p2-2---2h3p2-2--5-5-0-----|

C|-------------------------------------|
G|-------0--------0--------0-----------|
E|-------0--------0--------0-----------|
B|-2h3p2----2h3p2----2h3p2---5-5-0-----|
F|-2h3p2----2h3p2----2h3p2---5-5-0-----|
B|-2h3p2----2h3p2----2h3p2---5-5-0-----|

C|---------------|
G|---------------|
E|-----*-*-*-*---|
B|-0h2-2-0-2-0-2-| (4x)
F|-0h2-2-0-2-0-2-|
B|-0h2-2-0-2-0-2-|
   "Parece irreal”...

(refrão)
                                     |_______(2x)________|
C|---------------------------|---------------------------|
G|----------------------(x3)-|---------------------------|
E|-9-------------------------|-9-------------------------|
B|-9--0--2-2-0-2-0-2-2-0-2-0-|-9--0--2-0-2-0-2-0-2-0-2-0-|
F|-7--0--2-2-0-2-0-2-2-0-2-0-|-7--0--2-0-2-0-2-0-2-0-2-0-|
B|----0--2-2-0-2-0-2-2-0-2-0-|----0--2-0-2-0-2-0-2-0-2-0-|
    "Soñar, despierto”...

C|----------------------------------------|
G|----------------------------------------|
E|----------------------------------------|
B|-2h3p2-2---2h3p2-2---2h3p2-2--5-5-0-----| (4x)
F|-2h3p2-2---2h3p2-2---2h3p2-2--5-5-0-----|
B|-2h3p2-2---2h3p2-2---2h3p2-2--5-5-0-----|

C|---------------|
G|---------------|
E|-----*-*-*-*---|
B|-0h2-2-0-2-0-2-| 
F|-0h2-2-0-2-0-2-|
B|-0h2-2-0-2-0-2-|

(refrão)
                                     |_______(2x)________|
C|---------------------------|---------------------------|
G|----------------------(x3)-|---------------------------|
E|-9-------------------------|-9-------------------------|
B|-9--0--2-2-0-2-0-2-2-0-2-0-|-9--0--2-0-2-0-2-0-2-0-2-0-|
F|-7--0--2-2-0-2-0-2-2-0-2-0-|-7--0--2-0-2-0-2-0-2-0-2-0-|
B|----0--2-2-0-2-0-2-2-0-2-0-|----0--2-0-2-0-2-0-2-0-2-0-|
   "Soñar, despierto”...

C|----------------------------------------|
G|----------------------------------------|
E|----------------------------------------|
B|-2h3p2-2---2h3p2-2---2h3p2-2--5-5-0-----| (2x)
F|-2h3p2-2---2h3p2-2---2h3p2-2--5-5-0-----|
B|-2h3p2-2---2h3p2-2---2h3p2-2--5-5-0-----|
   "Volver a respirar”

C|-------------------------------------|
G|-------0--------0--------0-----------|
E|-------0--------0--------0-----------|
B|-2h3p2----2h3p2----2h3p2---5-5-0-----| (2x)
F|-2h3p2----2h3p2----2h3p2---5-5-0-----|
B|-2h3p2----2h3p2----2h3p2---5-5-0-----|
   "Volver a respirar”
Compositor no encontrado.
Colaboración y revisión:
  • Jefferson Sousa
47 vistas
    • ½ Tono
    • A
    • Bb
    • B
    • C
    • Db
    • D
    • Eb
    • E
    • F
    • F#
    • G
    • Ab
  • Agregar a la lista

    0 comentarios

    Ver todos los comentarios

    ¿Lograste tocar?

    0 Tocaron 0 Aún no

    ¡Graba un video tocando Volver a Respirar y envíanoslo!

    00:00 / 00:00
    Otros videos de esta canción
    Repetir Calidad Automático
    Otros videos de esta canción
    00:00 / 00:00
    Automático
    OK