Cifra Club

Vuelve a mí

QBO

Cifrado: Principal (guitarra y guitarra eléctrica)
tono: Em
INTRO:
E|-------------------------------------------------------|
B|-------------------------------------------------------|
G|---------------------4---------------------------7~----|
D|---------5-4-----------5--------5--------7-------------|
A|------7-------5--3-----------3-------5-------7---------|
E|-------------------------------------------------------|

E|-------------------------------------------------------| x2
B|-------------------------------------------------------| /
G|---------------------4---------------------------------| /
D|---------5-4-----------5--------5--------7-------------| /
A|------7-------5--3-----------3-------5-----------------| /
E|-------------------------------------------------------/|

NOTA:la primera vez que se toca la intro es limpia la segunda
vez ya se usa la distorcion.

Eso hace la guitarra principal en 2 tiempos después entra el bajo
y acompañamiento en estas notas con quintas E-C-D.
y la parte que pongo
 a continuación es con rasgueo.
Em                      D
   Sigo esperando por ti
Em                    D
   Desde el día en que dijiste
Em                        D
   Que ya no sientes por mí
Em                      D
   Que a mi lado todo es tan triste
G        D             G
  Por tenerte una vez más
        A        B
  Doy todo mi reino

Nota: Esta parte va con quintas

E  C       D   B         E   C        G   F#
  Vuelve a mi quiero sentir si estoy vivooo
E  C       D   B       E    D      E
  Vuelve a mi sabes te necesito aquí
E|-------------------------------------------------------|
B|-------------------------------------------------------|
G|---------------------4---------------------------7~----|
D|---------5-4-----------5--------5--------7-------------|
A|------7-------5--3-----------3-------5-------7---------|
E|-------------------------------------------------------|

E|-------------------------------------------------------|
B|-------------------------------------------------------|
G|---------------------4---------------------------------|
D|---------5-4-----------5--------5--------7-------------|
A|------7-------5--3-----------3-------5-----------------|
E|-------------------------------------------------------|
NOTA: antes de empezar este intermedio lleva un palm mute

Aun te puedo oír
Diciendo que tú ya me cambiaste
Pero yo no lo creí
Es demasiado fuerte para mí

Olvidarte me costo
Todo lo que tengo

E  C       D   B         E   C        G   F#
  Vuelve a mi quiero sentir si estoy vivooo
E  C       D   B       E    D      E
  Vuelve a mi sabes te necesito aquí
A              G                E
  No puedo dormir no quiero sentir
          D
  Como tu voz se aleja
A          G             E                D
  Vas a vivir dentro de mi cuando baje la marea
Em        C
(Vuelve a mi) vuelve a mi
D          B                 E   C       G   F#
(quiero sentir) quiero sentir   Si estoy vivooo
E  C       D   B       E    D      E
  Vuelve a mi sabes te necesito aquí
E|-------------------------------------------------------|
B|-------------------------------------------------------|
G|---------------------4---------------------------7~----|
D|---------5-4-----------5--------5--------7-------------|
A|------7-------5--3-----------3-------5-------7---------|
E|-------------------------------------------------------|

E|-------------------------------------------------------|
B|-------------------------------------------------------|
G|---------------------4---------------------------------|
D|---------5-4-----------5-------------------------------|
A|------7-------5--3-----------3-------------------------|
E|-------------------------------------------------------|
Composición de QBO
4 vistas
    • ½ Tono
    • Am
    • Bbm
    • Bm
    • Cm
    • C#m
    • Dm
    • Ebm
    • Em
    • Fm
    • F#m
    • Gm
    • G#m
  • Agregar a la lista

    0 comentarios

    Ver todos los comentarios

    ¿Lograste tocar?

    0 Tocaron 0 Aún no

    ¡Graba un video tocando Vuelve a mí y envíanoslo!

    00:00 / 00:00
    Otros videos de esta canción
    Repetir Calidad Automático
    Otros videos de esta canción
    00:00 / 00:00
    Automático
    OK