Cifra Club

Amizade

Quatro Por Um

Cifrado: Versão 3 (guitarra y guitarra eléctrica)
tono: E
(intro) E  E/G#  A  C#m  B 

E|----------------------------------------------------------|
B|---15/17-17~-14-15-14----14~---15/17-17~-14-15-14---------|
G|----------------------16---------------------------16-14~-|
D|----------------------------------------------------------|
A|----------------------------------------------------------|
E|----------------------------------------------------------|

E|----------------------------------------------------------|
B|-15/17-17~-14-15-14---14----------14-15/17~15141514-------|
G|--------------------16--14~--14/16-----------------16-14~~|
D|----------------------------------------------------------|
A|----------------------------------------------------------|
E|----------------------------------------------------------|

E           B         A     C#m  B
Que bom te ter aqui comigo
E         B              A  C#m  B
Pra conversar e te conhecer
E         B            A    C#m  B
Entra na roda e vem comigo
E       B             A     C#m  B
Só é feliz quem tem amigos
A9                 E
Aproveitar esse momento lindo
F#m                Bsus     B
Cantar, sorrir, fazer amigos
A9                      E
Celebrando a Deus que nos uniu
F#m            Bsus      B
Como foi bom te conhecer
        
(refrão 2x)
 E          E/G#             
 Que bom te conhecer         
A           B                   
Pra mim foi um prazer           
E        E/G#                   
Viver em comunhão               
  A    E/G#   F#m    B     E ( B )  
Amigo mais chegado que irmão.   
Composición de Emerson Pinheiro / Marcus Salles / Valmir Bessa
Colaboración y revisión:
  • karyna sabrina
  • Ramon Valdez
36 vistas
    • ½ Tono
    • A
    • Bb
    • B
    • C
    • Db
    • D
    • Eb
    • E
    • F
    • F#
    • G
    • Ab
  • Agregar a la lista

    0 comentarios

    Ver todos los comentarios
    00:00 / 00:00
    Outros vídeos desta música
    Repetir Calidad Automático
    Outros vídeos desta música
    00:00 / 00:00
    Automático
    OK