Cifra Club

O Mover do Espírito

Quatro Por Um

Cifrado: Principal (guitarra y guitarra eléctrica)
tono: E
Intro: C#m  A  B 4x

Solo Intro:

E|-----------------7-7----|----------------7-7-----|
B|----4-4-4-5-5-5---------|---4-4-4-5-5-5-------7--|
G|------------------------|------------------------|
D|------------------------|------------------------|
A|------------------------|------------------------|
E|------------------------|------------------------|

E|--------------7-7--------------------7-7----------------------------------|
B|-4-4-4-5-5-5------------4-4-4-5-5-5-------7-7-7-5-7-7-7-5-7-7-7-5-7b9r7-5-|
G|--------------------------------------------------------------------------|
D|--------------------------------------------------------------------------|
A|--------------------------------------------------------------------------|
E|--------------------------------------------------------------------------|

E/G#             A/C#          E/G#
Quero que valorize o que você tem.
          A/C#           E/G#           A/C#         B/D#
Você é um ser você é alguém, tão importante para Deus.
E/G#            A/C#             E/G#
Nada de ficar sofrendo angústia e dor
            A/C#            E/G#          A/C#                B/D#
Neste seu complexo interior, dizendo às vezes que não é ninguém...

           C#M         A             E
Eu venho falar do valor que você tem ¬  (2x)

E/G#          A              E/G#           A                E/G#
Ele está em você! O Espírito Santo se move em você, até com gemidos.
       C#m             B
Inexprimíveis, inexprimíveis 
  E/G#              A                    E/G#                 A
Daí você pode então perceber, que prá Ele há algo importante em você
    E/G#               C#m                 B
Por isso levante e cante exalte ao Senhor

            C#m             A                  B
Você tem valor o espírito santo se move em você ¬ (2x)
Composición de Armando Filho
Colaboración y revisión:
  • Vladimilson Junior
170 vistas
    • ½ Tono
    • A
    • Bb
    • B
    • C
    • Db
    • D
    • Eb
    • E
    • F
    • F#
    • G
    • Ab
  • Agregar a la lista

    0 comentarios

    Ver todos los comentarios
    00:00 / 00:00
    Otros videos de esta canción
    Repetir Calidad Automático
    Otros videos de esta canción
    00:00 / 00:00
    Automático
    OK