Enviar cifraEntrar

Vim para adorar-te

Quatro Por Um

Acordes: Principal
reproducciones 251
Tono: F
Intro: F  C  Gm  Bb9  F  C  Bb9

F           C          Gm       Bb9
Luz das Nações que dissipa as trevas
F             C        Bb9
Abre os meus olhos pra ver
F        C          Gm        Bb9
Lindo tu és, eu só quero adorar-Te
F            C       Bb9
Dar os meus dias pra Ti

             F                   C
Vim para adorar-Te, vim para prostrar-me
            F/A          Bb9
Vim para dizer-Te: És meu Deus
             F                C
Totalmente amável, totalmente digno
          F/A       Bb9
És maravilhoso para mim

F          C       Gm      Bb9
Rei sobre todos Tu és Exaltado
F       C        Bb9
Entronizado nos Céus
F        C     Gm       Bb9
Humildemente viestes a Terra
F       C        Bb9
Se entregou por Amor

             F                    C
Vim para adorar-Te, vim para prostrar-me
            F/A          Bb9
Vim para dizer-Te: És meu Deus
             F                C
Totalmente amável, totalmente digno
          F/A       Bb9
És maravilhoso para mim
             F                    C
Vim para adorar-Te, vim para prostrar-me
           F/A          Bb9
Vim para dizer-Te: És meu Deus
             F                C
Totalmente amável, totalmente digno
        F/A        Bb9
És maravilhoso para mim

     C   Dm       Bb9
Não saberei o quanto custou
     C     Dm    Bb9
Ver meus pecados lá na Cruz
     C   Dm        Bb9
Não saberei quanto custou
     C     Dm    Bb9
Ver meus pecados lá na Cruz

    C    F      Bb9
Não saberei quanto custou
    C    F     Bb9
Ver meus pecados lá na Cruz
    C   F      Bb9
Não saberei quanto custou
    C    F     Bb9
Ver meus pecados lá na Cruz

             F
Vim para adorar-Te
             C/E
Vim para prostrar-me
            F/A           Bb9
Vim para dizer-Te: És meu Deus
             F
Totalmente amável
           C
Totalmente Digno
        F/A        Bb9
És maravilhoso para mim
             F
Vim para adorar-Te
             C
Vim para prostrar-me
           F/A           Bb9
Vim para dizer-Te: És meu Deus
             F
Totalmente amável
           C
Totalmente Digno
          F/A        Bb9
És maravilhoso para mim

Solo durante o riff:


E|--4~~-4-5-2~~-2-4-5-5-4-2-0------4~~-4-5-2~~-2-4-----|   (2x)
B|----------------------------5~~------------------5~~-|
G|-----------------------------------------------------|
D|-----------------------------------------------------|
A|-----------------------------------------------------|
E|-----------------------------------------------------|


Solo para o refrão:


E|--5-4-4-2-4~~-4-------5-4-4-2-2~~-2-2-------5-4-4-2-4~~-4-----4--4/7------|  (2x)
B|-----------------------------------------------------------------------5--|
G|--------------------------------------------------------------------------|
D|--------------------------------------------------------------------------|
A|--------------------------------------------------------------------------|
E|--------------------------------------------------------------------------|
  • 1
  • 2
  • 3
  • 4
  • 5
  • 6
  • 7
  • 8
  • 9
  • 10
  • 11
  • 12

    0 comentarios

      mostrar mas comentarios

      ¿Conseguiste tocar?

      37tocaron1aún no

      ¡Grave un vídeo tocando Vim para adorar-te y envie para nosotros!

      00:00 / 00:00
      outros vídeos desta música
      repetirqualidadeautomática
      • automática
      Outro vídeos desta música
        00:00 / 00:00
        automática
        • automática
        1 versión de Contrabajoreproduccionescontribuciones
        1 versión de Partiturasformatodownloadscontribución
        cerrarplay/pause subir/bajar velocidad
          acordes
          cerrar
          OK
          Feedback