Cifra Club

Pretty Like Drugs

Queen Adreena

Chords: Principal (acoustic and electric guitars)
tone: Db


Main riff

e|------------------------------------------
B|------------------------------------------
G|------------------------------------------
D|5-5---------------------------------------
A|5-5---------------------------------------
E|3-3-6h8-3h4p3-8h9p8-6---------------------


Outro

e|------------------------------------------
B|------------------------------------------
G|------------------------------------------
D|5-5-5-5-5-5-------------------------------
A|5-5-5-5-5-5-------------------------------
E|3-3-3-3-3-3-------------------------------


Bridge

e|------------------------------------------------------------
B|-------------------10-10-9-9-8-8-7-7-7-7-7-7-7-7------------
G|10-10-9-9-8-8-7-7-------------------------------------------
D|------------------------------------------------------------
A|------------------------------------------------------------
E|------------------------------------------------------------

Jessika Penther...
00:00 / 00:00
Other videos of this song
Repeat
Other videos of this song
Composer not found.
43 views
    • ½ Tone
    • A
    • Bb
    • B
    • C
    • Db
    • D
    • Eb
    • E
    • F
    • F#
    • G
    • Ab
  • Add to list
    00:00 / 00:00
    OK