Cifra Club

Back Chat

Queen

Cifrado: Principal (guitarra y guitarra eléctrica)
tono: D
intro
|-------12--------8----------10-----------13---------15--|
|----13---------8---------10-----------13---------15-----|
|-14----------9--------11-----------14---------16--------|
|--------------------------------------------------------|
|--------------------------------------------------------|
|--------------------------------------------------------|

riff principal:(varias vezes pela música)
E|-------------------------------|---------------------------------|
B|-------------------------------|---------------------------------|
G|-------------------------------|---------------------------------|
D|-------------------------------|-------------------3-------------|
A|-------------------3-----------|--3--5--3--5--3--5----5--3--5----|
E|--3--5--3--5--3--5----5--3--5--|---------------------------------|

solo
|---------------------------12-------------------------------------------------|
|-13b15---13vvv-----13--15------13b15--13vvv---12h13-13p12----12---------------|
|--------------------(13)----------------------------------14----14b16---14vv--|
|------------------------------------------------------------------------------|
|------------------------------------------------------------------------------|
|------------------------------------------------------------------------------|

|-------------12---------------------------12---------12---------12---|
|-12--13--15------15b17vv----15---13-15b17------15b17------x-b17------|
|---------------------------------------------------------x-----------|
|---------------------------------------------------------------------|
|---------------------------------------------------------------------|
|---------------------------------------------------------------------|

|---------------------------------------------------------------------------------------------|
|-17r15p13---12-13----------------------------------------------------------------------------|
|------------------14v---12---------------------------------12--12----------------------------|
|----------------------------13r12p10--12p10------12/14-12----------10--13r12--10--12---------|
|--------------------------------------------12----------------------------------------10--12-|
|---------------------------------------------------------------------------------------------|

|-----------19b21-----------------------------------------------------------|
|-20b22---------------20b22---b22---22r20---p17-20p17-----------------------|
|-----------------------------------------------------20--19--17b-------x-x-|
|-----------------------------------------------------------------19\\/-x-x-|
|---------------------------------------------------------------------------|
|---------------------------------------------------------------------------|

|-----------------------------------------20b22----20p17---------------------------------------|
|-20------20----(0)---20b22---20-19---x------------------20p17---------------------------------|
|-19b21---19b21-----------------------x------------------------20p19p17------------------------|
|-------------------------------------x---------------------------------19-17------------------|
|-------------------------------------x---------------------------------------19-18-17-15------|
|-------------------------------------x---------------------------------------------------17---|
Composición de John Deacon
Colaboración y revisión:
  • Taino Vieira
338 vistas
    • ½ Tono
    • A
    • Bb
    • B
    • C
    • Db
    • D
    • Eb
    • E
    • F
    • F#
    • G
    • Ab
  • Agregar a la lista

    0 comentarios

    Ver todos los comentarios
    00:00 / 00:00
    Outros vídeos desta música
    Repetir Calidad Automático
    Outros vídeos desta música
    00:00 / 00:00
    Automático
    OK