Cifra Club

Bohemian Rhapsody

Queen

Tablatura: Principal
reproducciones 33.255
Tono: G#
Bb6
Is this the real life?
C7
Is this just fantasy?
 F7
Caught in a landslide
 Bb
No escape from reality
Gm
Open your eyes
     Bb7                   Eb
Look up to the skies and see
Cm               F7
I'm just a poor boy, I need no sympathy
           B     Bb   A     Bb  B      Bb    A      Bb
Because it easy come, easy go, little high, little low                     
Eb           Bb          C#°           F      F7/Eb        Bb
Any way the wind blows, doesn't realy matter to me   to me

 Bb          Gm
Mama   just killed a man
       Cm                               Cm7              F
Put a gun against his head, pulled my trigger, now he's dead
 Bb             Gm              Cm                  G5+/B  Eb/Bb    
Mama  life had just begun, but now I've gone and thrown it all away
 Eb  Bb/D   Cm     Fm      C/E  Ab/Eb      Bb           Bb6     Bb7
Mama Uuuu  didn't mean to make you cry,   if I'm not back again this time
      Eb
Tomorrow
      Bb/D      Cm           Abm         Eb      Ab/Eb  Eb    Bb7/4/9  Bb
Carry on, carry on as if nothing really matters
                       Gm
Too late, my time has come
       Cm                    Cm7                   F
Sent shivers down my spine, body's achin' all the time
 Bb                      Gm
Goodbye everybody, I've got to go
       Cm              G5+/B    Eb/Bb       Abmaj7  Eb/G
Gotta leave you all behind and face the truth
 Eb  Bb/D  Cm  Fm       C/E  Ab/Eb     Bb          Bb6             Bb7
Mama Uuuu      I don't want to die, I sometimes wish I'd never been born at all

[Solo]

E|----------------------------------------------------|
B|-----------------11~---8--11b13~--------------------|
G|------10b12r10p8------------------------------------|
D|-8~-------------------------------------------------|
A|----------------------------------------------------|
E|----------------------------------------------------|

E|-------------------------------15-16-18-b20~r-------|
B|-13--15-16-13--15-16-b18----18----------------------|
G|----------------------------------------------------|
D|----------------------------------------------------|
A|----------------------------------------------------|
E|----------------------------------------------------|

E|-16-15-16-15h16p15----15----------------------------|
B|-------------------18----18-16-15-16-15h16p15----15-|
G|----------------------------------------------17----|
D|----------------------------------------------------|
A|----------------------------------------------------|
E|----------------------------------------------------|

E|----------------------------------------------------|
B|----------------------------------------------------|
G|-17-15-15~------------------------------------------|
D|----------------------------------------------------|
A|----------------------------------------------------|
E|----------------------------------------------------|

E|-------------------15-16-18-------------------------|
B|----------15-16-18----------------------------------|
G|-15~---17-------------------------------------------|
D|----------------------------------------------------|
A|----------------------------------------------------|
E|----------------------------------------------------|

E|-----~----------15-16-18-b20~-----------------------|
B|-------15-16-18-------------------------------------|
G|-15-17----------------------------------------------|
D|----------------------------------------------------|
A|----------------------------------------------------|
E|----------------------------------------------------|

E|----------------------------------------------------|
B|-15-16-13--15-16-13--15-16-b18~---------------------|
G|----------------------------------------------------|
D|----------------------------------------------------|
A|----------------------------------------------------|
E|----------------------------------------------------|

E|------------13--------------------------------------|
B|-----------------------14--14-14-14\----------------|
G|-10-12-13~-------13~-----------------------6h7p6\2--|
D|----------------------------------------------------|
A|----------------------------------------------------|
E|----------------------------------------------------|

D/A  A    A       D/A     A      
I  see  a  little  silhouetto  of  a  man
  A   D/A    A   D/A   A                A  D/A  A
Scarmouch  Scarmouch  will  you do  the  fandango?
  C#/G#   G#    C#/G#     G#      C/G          E7          A
Thunder  bolts  and  lightening  very  very  frightening  me
                                                  A  A  A#  A  G  F  E
Galileo  Galileo Galileo Galileofigaro Mangnifico oh oh oh
B     Bb       A     Bb   B       Bb     A  Bb
I'm  just  a  poor  boy  nobody  loves  me
 Ab/Eb  Eb   Eb°  Eb   Ab/Eb  Eb  Eb°       Eb
He's   just  a  poor  boy,  from  a  poor  family
  Ab              Eb/G         F7        Bb
Spare  him  his  life  from  this  monstrosity

Ab/Eb  Eb    Bb7/4/9

B      Bb   A      Bb  B          Bb       Bb°
Easy  come  easy  go  will  you  let  me  go?
 Bb5   Eb  Bb5  Eb  Bbsus4     Bb   Bbsus4  Bb
Bismillah NO,  we  will  not  let  you  go
Let  him  go
 Bb    Eb   Bb        Bbsus4    Bb  Bbsus4  Bb
Bismillah  we  will  not  let  you go      Let  him  go
 Bb    Eb  Bb        Bbsus4    Bb  Bbsus4  Bb
Bismillah we  will  not  let  you go      Let  me   go
 Bbsus4  Bb  Bbsus4    Bb                 Bbsus4  Bb  Bbsus4    Bb
Will    not let  you  go   let  me  go   will    not let  you  go
Let  me  go oh  oh  oh  oh oh
 A5  D   Db  Gb  Bb5  Eb5                         Eb  Ab  Eb       Bb
No  no  no  no  no   no  no  Oh mamamia mamamia  mamamia let  me  go
 Eb    Ab       D7             Gm           Bb5
Beelzebub  has  a  devil  put  aside  for  me   for  me  for me

[Riff]

So you think you can stone me and spit in my eye
So you think you can love me and leave me to die
Oh, baby, can't do this to me, baby
Just gotta get out, just gotta get right outta here

[Riff]

E|-----------------------------------------------------------------------------|
B|-----------------------------------------------------------------------------|
G|-----------------------------------------------------------------------------|
D|-----------------------------------------------------------------------------|
A|-------------3---5---6---6-----------3-----------6---------------------------|
E|--3---4---6----------------3---4---6----6~~----------------------------------|

E|-----------------------------------------------------------------------------|
B|-----------------------------------------------------------------------------|
G|-------------------------------------------------------------8--8------------|
D|---------------------------------------------------8---------8--8------------|
A|-------------3---5---6---8-----------5-------------8---------6--6------------|
E|--3---4---6----------------5---6---8----6----6-----6-------------------------|

E|-----------------------------------------------------------------------------|
B|-----------------------------------------------------------------------------|
G|----------------------------------------6~~-0--------------------------------|
D|--8------8-3/8~~---6---8--6--------------------------8--------8--------------|
A|--8-----------------------------8----4-----------------8---------------------|
E|--6----------------------------------------------------6---------0-----------|

E|-----------------------------------------------------------------------------|
B|--------------------------4----3-----------------3---------------------------|
G|--------------------------5----3-----------------3---------------------------|
D|---3----------------------6----5----3------------3--3h5---3------------------|
A|---1------1/6--6--6--6p0--6----5----3------------1-----------5p3----------3--|
E|--------------------------4----3----1-------1>0--------------------1---------|

E|-----------------------------------------------------------------------------|
B|---3---3---------------------------------------------------------------------|
G|---3---3---------------------------------------3-------------3---------------|
D|---3---3-----------3-----5p3-------------------3-------------3---------------|
A|---1---1---3--3/5-------------5---------------1-------------1----------------|
E|-----------------------------------1-----1p0---------1-----------------------|

E|-----------------------------------------------------------------------------|
B|-----------------------------------------------------------------------------|
G|-----------------------------------------------------------------------------|
D|-----------------------------------------------------------------------------|
A|--6---------------3---5---6---6-------------3--------------------------------|
E|-----3---4----6-------------------3---4---6----6~~---------------------------|

E|-----------------------------------------------------------------------------|
B|-----------------------------------------------------------------------------|
G|-----------------------------------------------------------------------5~~---|
D|------------------------------------------------------6---8~~---6--8---------|
A|--6------------3--5--6---8-------------5---7---8---9-------------------------|
E|-----3---4---6--------------5---6---8----------------------------------------|

E|-----------------------------------------------------------------------------|
B|-----------------------------------------------------------------------------|
G|------------5----6--------------------6----6--8--9---------------------------|
D|---8~~-----------------------6---8--9----9-----------------------------------|
A|---------------------6h7--9--------------------------------------------------|
E|-----------------------------------------------------------------------------|

E|-----------------------------------------------------------------------------|
B|-----------------------------------------------------------------------------|
G|-------------------------------------3~~-------------------------------------|
D|------------------3--4--4p3---4---6------------------------------------------|
A|-------3---4---6-------------------------------------------------------------|
E|---4h6-----------------------------------------------------------------------|

E|-----------------------------------------------------------------------------|
B|---------------------------------------8---9---------------------------------|
G|----------7-------7---8---10---8---10----------------------------------------|
D|--8---10-----10--------------------------------------------------------------|
A|-----------------------------------------------------------------------------|
E|-----------------------------------------------------------------------------|

[Guitar]

E|-----------------------------------------------------------------------------|
B|--------8----11~~-----------------------11-----------8----139----------------|
G|-----8----------------------------7--10------------8-------------------------|
D|--8----------------------------8----------------10---------------------------|
A|-----------------------------------------------------------------------------|
E|-----------------------------------------------------------------------------|

E|-----------------------------------------------------------------------------|
B|---8---8---8-----9--8------6-----8p9---8------10p11---103--3~~---------------|
G|---7---8---7----10--8------7-----8p10--8------10p12---117--7~~---------------|
D|-----------------------------------------------------------------------------|
A|-----------------------------------------------------------------------------|
E|-----------------------------------------------------------------------------|

 Cm             Gm      Cm          Gm
Nothing really matters, anyone can see
 Cm             Ab       Ab/Bb                     Eb  Ab/Eb  Eb
Nothing raelly matters, nothing really matters to me

  Bb/D  Bbm/C#  C  C7  C  F

Bb   F           C7sus4  F
Any way the wind blows
Acordes para:

    0 comentarios

      mostrar más comentarios

      ¿Conseguiste tocar?

      32tocaron4aún no

      ¡Graba un vídeo tocando Bohemian Rhapsody y envianoslo!

      00:00 / 00:00
      outros vídeos desta música
      repetirqualidadeautomática
      Outro vídeos desta música
        00:00 / 00:00
        automática
        Capítulos
        • Tocando Solo
        • Dicas iniciais / Equipamentos
        • Configuração do Efeito
        • Solo - Parte 1 de 8 (55bpm)
        • Solo - Parte 2 de 8 (55bpm)
        • Solo - Parte 3 de 8 (55bpm)
        • Solo - Parte 4 de 8 (55bpm)
        • Solo - Parte 5 de 8 (55bpm)
        • Solo - Parte 6 de 8 (55bpm)
        • Solo - Parte 7 de 8 (55bpm)
        • Solo - Parte 8 de 8 (55bpm)
        • Solo - Parte 1 de 8 (65bpm)
        • Solo - Parte 2 de 8 (55bpm)
        • Solo - Parte 3 de 8 (55bpm)
        • Solo - Parte 4 de 8 (55bpm)
        • Solo - Parte 5 de 8 (55bpm)
        • Solo - Parte 6 de 8 (55bpm)
        • Solo - Parte 7 de 8 (55bpm)
        • Solo - Parte 8 de 8 (55bpm)
        • Encerramento
        • Ficha técnica / Erros de Gravação
        OK