Cifra Club

Bohemian Rhapsody

Queen

Tab de bajo: Principal
G|-----------------------------------10/3-----------------------|   
D|--------------------------------------------------------------|   
A|------------------------------------------1----3--2--1--0-----|   
E|-6----6----6------3-------8---8------------3--------------4--3|   
 
G|--------------------------------------------------------------|   
D|------------3--2--1--0-------------------------------6/13-----|   
A|-6---5--3----------------1--1-1--1-1-1/-6--5--3---------------|   
E|--------------------------------------------------------------|   

G|-----------------------------------10/3-----------------------|   
D|--------------------------------------------------------------|   
A|-----------------------------------------1----3-2-1-0---------|   
E|-6----6----6------3-------8---8-----------3-----------4-3-----|   

G|--------------------------------------------------------------|   
D|------------3--2--1--0----------------------------------------|   
A|-6---5--3---------------1---1-1--1-1--1-1--1/6----------------|   
E|--------------------------------------------------------------|   

G|---------5------------------------3---3---3-------------------|   
D|-------5----3--2--1--0--------3---3---3-----------------------|   
A|-5--3-------------------1-1-1---------------6-----------------|   
E|--------------------------------------------------------------|   

G|----------------------------5---------------------------------|   
D|--------------------------5--5---3--2--1--0-------------------|   
A|-6--6--5---5--3---3--3----------------------4--4-3-2--1--0----|   
E|--------------------------------------------------------------|   
   
G|--------------------------------------------------------------|   
D|--6-6-6-6-6----5--5-------------------------------------------|   
A|--------------------------------------------------------------|   
E|------------------------0--0--5-------------------------------|   

G|--------------------------------------------------------------|   
D|------------------------6-6-6--5-5----3-1-0-------------------|   
A|-6-6-6-6-6-6-6-6-6-6-----------------------3-1----------------|   
E|--------------------------------------------------------------|   

G|--------------------------------------------------------------|   
D|--------------------------------------------------------------|   
A|----6--------6--------6---------------------------------------|   
E|--6---6----6---6----6---6-------------------------------------|   

G|--------------------------------------------------------------|   
D|------------4----------------6--------------------------------|   
A|------5--4------6------6--6---6-5-----------------------------|   
E|-7--5---------6--------------------8--6-----------------------|   

G|--------------------------------------------------------------|   
D|-------------------------------5-5----------------------------|   
A|--6--6-------5--5--5--5---------------------------------------|   
E|--------4--4--------------------------------------------------|   

G|--------------------------------------------------------------|   
D|--------------------------------------------------------------|   
A|-1-1-1-1-1-1-1-1-1-1-1-1-1-1-1-1-1-1-1-1-1-1-1-1--1--1--1--1/6|   
E|--------------------------------------------------------------|   

G|--------------------------------------------------------------|   
D|--------------------------------------------------------------|   
A|---------3--5--6-6---------3------6---------3-5-6/8--------5--|   
E|3--4--6------------3--4-6---6------3--4--6----------5-6-8---8-|   

G|-----------------------------------------------------6-(6)-(6)|   
D|-------------------------------------------8-6-8-6------------|   
A|-----------------------6--6--6--6-----------------8-4---------|   
E|6-6-6-6-6-6-6-6-6-6-6-6----------6--6--6--6-------------------|    

G|----------------------------------------------------------------------------3---3-----|   
D|----------------------------------------6-6-6-6-6-6-5--3--3--3----------------------3-|   
A|-------------------------------6-6-6-6-----------------------3--3---1-------1---1-----|   
E|-6-6-6-6-6-6-6-6----6-6-6-6-----------------------------------------------------------|   

G|-------------3-3-3-3-3-3-3--------------3-3-3----------------------|   
D|-3---3----------------------3----3--------------3---3--------------|   
A|---3---3--1-------------------3----3--1----------3---3-1-1-1---1/6-|   
E|-------------------------------------------------------------------|   

G|------------------------------------------------------------------|   
D|------------------------------------------------------------------|   
A|--------3-5-6---6--------3-----6----------3-5-6/8--------5--7--8--|   
E|--3-4-6-----------3--4-6---6-----3--4--6----------5-6-8-----------|   

G|-----------------5---5--6-------------------------------------|   
D|---6--8----6-8----8-------9----6----8-------------------------|   
A|-9------------------------------------------------------------|   
E|--------------------------------------------------------------|   

G|-------8---------7-------4-5-----------------------------7------|   
D|-----8---8--------------------------8--6--5------------7--7---5-|   
A|--6--------6--5----5--3------2--3----------8--6----5-------5----|   
E|----------------------------------------------------------------|   

G|----------------------------------------20--(20)--------------|   
D|-6--6--------------------------18--20-------------------------|   
A|------6--6--5--3----3------15---------------------------------|   
E|------------------3----3--------------------------------------|
Composición de Freddie Mercury
Colaboración y revisión:
  • Cláudio Maia
  • Victor Moreira
1.381 vistas

0 comentarios

Ver todos los comentarios
00:00 / 00:00
Otros videos de esta canción
Repetir Calidad Automático
Otros videos de esta canción
00:00 / 00:00
Automático
OK