Cifra Club

Crazy Little Thing Called Love

Queen

Cifrado: Principal (guitarra y guitarra eléctrica)
Selo Cifra Club: esta cifra foi revisada para atender aos critérios oficiais da nossa Equipe de Qualidade.
tono: D
[Intro] D  D4  D  D4
        D  D4  D  D4  D

[Primeira Parte]

       D   D4  D             D4  D              
This thing,      called love
   G          C     G
I just can't handle it
       D   D4  D             D4  D              
This thing,      called love
   G         C       G
I must, get round to it
          D      
I ain't ready
  Bb5          C5          D
Crazy little thing called love

       D   D4  D             D4  D              
This thing,      called love
     G           C         G
It cries, in a cradle all night
     D    D4  D          D4  D             
It swings,      it jives
     G                    C    G
It shakes all overlike a jellyfish
         D       
I kinda like it
  Bb5          C5          D
Crazy little thing called love

[Ponte]

               G          
There goes my baby
      C                    G
She knows how to rock and roll
                Bb5                         
She drives me crazy
              E
She gives me hot and cold fever
     A                              
She leaves me in a cool
           E  (Riff 1)
Cool sweat

[Tab - Riff 1]

                E
E|------------------------------------------|
B|--------------5-5-5-5-5-5-----------------|
G|--------------4-4-4-4-4-4--2-2------------|
D|-------------------------------5-5-4-4-2--|
A|-5-4-3------------------------------------|
E|--------5-4-3-----------------------------|

[Segunda Parte]

            D   D4  D       D4  D 
I gotta be cool,      relax
     G       C       G
Get hip, get on my tracks
        D        D4  D            D4  D
Take a back seat,      hitch-hike
     G                      C     G        
And take a long ride on my motor bike
           D
Until I'm ready
  Bb5          C5          D
Crazy little thing called love

[Solo] Bb  D  Bb 
       E  A  E (Riff 2)

[Tab - Solo]

E|-9/10--10--10--10--10--10-----------------|
B|-9/10------10--10--10--10-----------------|
G|------------------------------------------|
D|------------------------------------------|
A|------------------------------------------|
E|------------------------------------------|

E|---------------------------------------13-|
B|-13b15-b15-b15r13p11-13-11~------13b15----|
G|------------------------------------------|
D|------------------------------------------|
A|------------------------------------------|
E|------------------------------------------|

E|-9/10-10-10-------------------------10-10-|
B|-9/10----10--12--10-----------10-12----10-|
G|-------------12--10h11--10h11-------------|
D|------------------------------------------|
A|------------------------------------------|
E|------------------------------------------|

E|-------13-------13----------------------13|
B|-13b15----13b15----15r13p11-13-11-13b15---|
G|------------------------------------------|
D|------------------------------------------|
A|------------------------------------------|
E|------------------------------------------|

E|-11/12-12----12---------------------------|
B|-11/12----15----14------------------------|
G|-------------------14-11-----14-14--------|
D|-------------------------14---------------|
A|------------------------------------------|
E|------------------------------------------|

E|------------------------------------------|
B|------------------------------------------|
G|-16b18r16p14-16-14------------------------|
D|------------------------------------------|
A|------------------------------------------|
E|------------------------------------------|

[Tab - Riff 2]

                   E
E|-------------------0-0-0-0-0-0------------|
B|-------------------0-0-0-0-0-0------------|
G|-------------------1-1-1-1-1-1------------|
D|-------------------2-2-2-2-2-2------------|
A|-5-4-3-------------2-2-2-2-2-2----0-------|
E|----------5-4-3----0-0-0-0-0-0------------|

[Segunda Parte]

I gotta be cool, relax
Get hip, get on my tracks
Take a back seat, hitch-hike
And take a long ride
On my motor bike
Until I'm ready
Crazy little thing called love

[Primeira Parte]

       D   D4  D             D4  D              
This thing,      called love
   G            C     G
I just  can't  handle it
       D   D4  D             D4  D              
This thing,      called love
   G         C       G
I must, get round to it
          D      
I ain't ready
  Bb5          C5          D
Crazy little thing called love

[Refrão Final]

  Bb5          C5          D
Crazy little thing called love
  Bb5          C5          D
Crazy little thing called love
  Bb5          C5          D
Crazy little thing called love
  Bb5          C5          D
Crazy little thing called love

  Bb5          C5          D
Crazy little thing called love
  Bb5          C5          D
Crazy little thing called love
  Bb5          C5          D
Crazy little thing called love
Otros videos de esta canción
707.672 exhibiciones
  • Simplificar cifrado
    • ½ Tono
    • A
    • Bb
    • B
    • C
    • Db
    • D
    • Eb
    • E
    • F
    • F#
    • G
    • Ab
  • Agregar a la lista

Afinación de cifrado

Afinador online

    OK