Cifra Club

Crazy Little Thing Called Love

Queen

Tab de bajo: Principal
[Intro violão]

[Primeira Parte]

This thing called love...

Parte 1 de 5

G|-------------4---------4----------------------------|
D|---------4-7-----4-7-7------------------------------|
A|-10/---5-------5------------------------------------|
E|----------------------------------------------------|

Parte 2 de 5

G|------------9---------------------------------------|
D|----9-12-12---10-10-9-9-----------------------------|
A|-10---------------------10--------------------------|
E|----------------------------------------------------|
 
Parte 3 de 5

G|-------4---------4----------------------------------|
D|---4-7-----4-7-7------------------------------------|
A|-5-------5------------------------------------------|
E|----------------------------------------------------|

Parte 4 de 5

G|------------9---------------------------------------|
D|----9-12-12---10-10-9-9-----------------------------|
A|-10---------------------10--------------------------|
E|----------------------------------------------------|

Parte 5 de 5

G|---------4-------------------------7----------------|
D|---4-7-7---------------4-7--9-7-9-------------------|
A|-5----------1-1-3-3--5------------------------------|
E|----------------------------------------------------|

Repete primeira parte,This thing called love...

[Segunda Parte]

There goes my baby

Parte 1 de 3

G|----------------------------------------------------|
D|-10/9-5-2---2--5-2---2----------5-2---2-------------|
A|----------5--------5---3-3-3-3------5---------------|
E|----------------------------------------------------|

Parte 2 de 3

G|----------------------------------------------------|
D|-8-7-5----------------------------------------------|
A|-------8-6-5-----7-7--------------------------------|
E|-------------8-6-----5-5-1--------------------------|

Parte 3 de 3

G|----------------------------------------------------|
D|---------------------------7-7-5-5-4-4--------------|
A|-5-4-3-------7-7-7-7-7-7---------------7-7----------|
E|-------5-4-3----------------------------------------|

[Terceira Parte]

I gotta be cool relax

Parte 1 de 5

G|-------4---------4----------------------------------|
D|---4-7-----4-7-7------------------------------------|
A|-5-------5------------------------------------------|
E|----------------------------------------------------|

Parte 2 de 5

G|------------9---------------------------------------|
D|----9-12-12---10-10-9-9-----------------------------|
A|-10---------------------10--------------------------|
E|----------------------------------------------------|

Parte 3 de 5

G|-------4---------4----------------------------------|
D|---4-7-----4-7-7------------------------------------|
A|-5-------5------------------------------------------|
E|----------------------------------------------------|

Parte 4 de 5

G|------------9---------------------------------------|
D|----9-12-12---10-10-9-9-----------------------------|
A|-10---------------------10--------------------------|
E|----------------------------------------------------|

Parte 5 de 5

G|---------4-------------------------7----------------|
D|---4-7-7---------------4-7--9-7-9-------------------|
A|-5----------1-1-3-3--5------------------------------|
E|----------------------------------------------------|

[Quarta Parte - Solo de guitarra]

Parte 1 de 4

G|-6-5------------------------------------------------|
D|-----10--8---------8-8------------------------------|
A|-----------10-8-10-----10-8-10----------------------|
E|----------------------------------------------------|

Parte 2 de 4

G|-----7---------7------------------------------------|
D|---7---5-5---7---7----------------------------------|
A|-5---------5----------------------------------------|
E|----------------------------------------------------|

Parte 3 de 4

G|----------------------------------------------------|
D|-8-7-5----------------------------------------------|
A|-------8-6-5-----7-7--------------------------------|
E|-------------8-6-----5-5-1--------------------------|

Parte 4 de 4

G|----------------------------------------------------|
D|-------------2-2-2-2-4-5-7--------------------------|
A|-5-4-3----------------------------------------------|
E|-------5-4-3----------------------------------------|

[Arranjo vocal] I gotta be cool relax

[Quinta Parte]

Parte 1 de 5

G|----------------------------------------------------|
D|----------------------------------------------------|
A|-x-10-9-7-------------------------------------------|
E|----------------------------------------------------|

This thing called love...

Parte 2 de 5

G|-------4---------4----------------------------------|
D|---4-7-----4-7-7------------------------------------|
A|-5-------5------------------------------------------|
E|----------------------------------------------------|

Parte 3 de 5

G|------------9---------------------------------------|
D|----9-12-12---10-10-9-9-----------------------------|
A|-10---------------------10--------------------------|
E|----------------------------------------------------|

Parte 4 de 5

G|-------4---------4----------------------------------|
D|---4-7-----4-7-7------------------------------------|
A|-5-------5------------------------------------------|
E|----------------------------------------------------|

Parte 3 de 5

G|------------9---------------------------------------|
D|----9-12-12---10-10-9-9-----------------------------|
A|-10---------------------10--------------------------|
E|----------------------------------------------------|

Parte 5 de 5

G|---------4-------------------4----------------------|
D|---4-7-7---------------4-7-7------------------------|
A|-5----------1-1-3-3--5------------------------------|
E|----------------------------------------------------|

[Sexta Parte]

Crazy little thing called love yeah yeah

Parte 1 de 4

G|---------------------------------4------------------|
D|-----------------------------4-7--------------------|
A|-1-1-3-3-5-5-5-5--1-1-3-3--5------------------------|
E|----------------------------------------------------|

Parte 2 de 4

G|----------------------------------------------------|
D|-8-8-10-10-12-12-12-12------------------------------|
A|----------------------------------------------------|
E|----------------------------------------------------|

Parte 3 de 4

G|----------------------------------------------------|
D|-8-8-10-10---4-7--------------4-7-------------------|
A|-----------5-----5--1-1-3-3-5-----5-----------------|
E|----------------------------------------------------|

Parte 4 de 4

G|----------------------------------------------------|
D|------------4-7--------------4-7-4------------------|
A|-1-1-3-3--5-----5--1-1-3-3-5--------5---------------|
E|----------------------------------------------------|
Composición de Freddie Mercury
2.371 vistas

0 comentarios

Ver todos los comentarios

¿Lograste tocar?

11 Tocaron 0 Aún no

¡Graba un video tocando Crazy Little Thing Called Love y envíanoslo!

00:00 / 00:00
Outros vídeos desta música
Repetir Calidad Automático
Outros vídeos desta música
00:00 / 00:00
Automático
Capítulos
  • Início
  • Tocando a Música
  • Tocando Primeira Parte
  • Ensinando Primeira Parte
  • Tocando Segunda Parte
  • Ensinando Segunda Parte
  • Tocando Terceira Parte
  • Ensinando Terceira Parte
  • Tocando Base Solo Guitarra
  • Ensinando Base Solo Guitarra
  • Tocando Quinta Parte
  • Ensinando Quinta Parte
  • Tocando Final
  • Ensinando Final
  • Encerramento
OK