Cifra Club

Good Old Fashioned Lover Boy

Queen

Chords: Principal (acoustic and electric guitars)
tone: A
Eb
I can dim the lights
              Ab            Gm   Cm
And sing you songs full of sad things
 Fm            Ab    Bb        Eb    Bb
We can do the tango just for two
Eb                          Ab
I can serenade and gently play
         Gm      Cm
On your heart strings
 Fm           G#m  Bb7      Eb   Bb
Be your Valentino just for you

Eb   Bb    Cm  Gm Ab  Eb
Ooh love,  Ooh lover boy
  Bb             Cm           G
What're doing tonight hey boy?
     Cm  Gm       Cm      Gm
Set my alarm turn on my charm
          Fm                   G#m      Bb7        Eb
That's because I'm a good old fashioned     lover boy

G#m                  Eb
Ooh let me feel you heartbeat
       Eb7
(Grow faster faster)
G#m F#7                B         F#7
Ooh   can you feel my love heat
                       B       F#7
Come on and sit on my hot seat of love
             B          Bb              Eb
And tell me how do you feel right after all
                     Ab         Gm Cm
I'd like for you and I to go romancing
Fm                 G#m     Bb7   Eb     Bb
Say the word your wish is my command

Eb   Bb     Cm   Gm Ab  Eb Bb 
Ooh love    Ooh lov-er boy
                 Cm        G 
What're doing tonight hey boy?
  Cm      Gm     Cm        Gm
Write my letter feel much better
     Fm            G#m           Bb7    Eb
I'll use my fancy patter on the telephone

  Eb
When I'm not with you
                    Bb7
Think of you always I miss you
(I miss those       long hot summer nights)
  Eb
When I'm not with you
  Bbm7                F7       Bb7  C7
Think of me always I love you love you
 Fm
Hey boy where did you get it from?

Hey boy where did you go?

I learned my passion
        G#m                  Bb7           Eb
In the good old fashioned school of lover boys

[Tab - Solo]
E|----------|------18--------------18----------------|
B|-13-14-15-|----------------------------------------|
G|----------|----------------------------------------|
D|----------|----------------------------------------|
A|----------|----------------------------------------|
E|----------|----------------------------------------|

E|----------|----------------------------------------|
B|----------|-11-------------------------------------|
G|----------|-12--------12___b13--------10---9-10--7-|
D|----------|-13--------14___b15--------12--11-12--8-|
A|----------|-----------16___b17--------13--12-13-10-|
E|----------|----------------------------------------|

E|-----------15----15-------------------------------------------------------------15--16-18-b20--b20--b20|
B|--------------18-----------------------b20_rbr18p16-15--16-18---------15-16--18------------------------|
G|---------------------------------------------------------------15-17-----------------------------------|
D|-------------------------------------------------------------------------------------------------------|
A|-------------------------------------------------------------------------------------------------------|
E|-------------------------------------------------------------------------------------------------------|
|
E|-------------------------------------------|
B|----------------------11-10-11---13__/16---|
G|12-11-12--------------12-11-12---13__/15---|
D|13-12-13--------------12-11-12---16--------|
A|15-14-15-----------------------------------|
E|-------------------------------------------|

E|---x-----------------------------15-15---------------------15----|
B|-x------------15-___________-----------------------b20--18-------|
G|----------16-----17b19r17p16-17----------------------------------|
D|-------17--------------------------------------------------------|
A|-----------------------------------------------------------------|
E|-----------------------------------------------------------------|
00:00 / 00:00
Other videos of this song
Repeat
Other videos of this song
Composed by Freddie Mercury
Collaboration and Review:
  • Heitor Meirelles
  • Amathiazita
  • Taino Vieira
10.648 views
    • ½ Tone
    • A
    • Bb
    • B
    • C
    • Db
    • D
    • Eb
    • E
    • F
    • F#
    • G
    • Ab
  • Add to list
    00:00 / 00:00
    OK