Cifra Club

I Was Born To Love You

Queen

Cifrado: Principal (guitarra y guitarra eléctrica)
Já pensou em usar uma coleção de roupas do Cifra Club? Responda as perguntas abaixo e nos ajude nessa missão! →
tono: F#
G#     Cm     C#
I was born to love you
 A#m                A#m7       D#    (  D#  C#  C  A# )
With every single beat of my heart
 G#          Cm     C#            Fm
Yes, I  was born to take care of you
 A#m          D#
Every single day

G#     Cm     C#    Fm  C#  Fm
I was born to love you
 A#m               A#m7       D#   ( D#  C#  C  A# )
With every single beat of my heart
G#     Cm          C#       Fm  C#  Fm
I was born to take care of you
A#m           D#        G#
Every single day of my life

 G#
You are the one for me, I am the man for you
 Cm
You were made for me, you're my ecstacy
C#
If I was given every opportunity
                   A#m
I'd kill for your love

[Solo]

#t1##t2#E|---------------------------------------------------|
B|-9b11----9-----------------11b13v----11------------|
G|--------------10---------------------------10------|
D|--------------------8--------------------------11--|
A|-----------------------11--------------------------|
E|---------------------------------------------------| #/t2##/t1#
                       D#
So take a chance with me
Let me romance with you
     Cm
I´m caught in a dream
And my dreams come true
         Fm
It`s so hard to believe this is
Happening to me
       A#7                   D#7
An amazing feeling coming through

C#9
I wanna love you

#t1##t2#E|----13-16-13----13-16----|
B|-16----------16----------|
G|-------------------------|
D|-------------------------|
A|-------------------------|
E|-------------------------| #/t2##/t1#
       G#
I love every little thing about you
C#                            D#
I wanna love you, love you, love you
 G#
Born to love you
 D#
Born to love you
 Fm
Yes I was born to love you
 A#m
Born to love you
 A#m7
Born to love you
D#
Every single day (day ..Day, Day) of my life

[Solo]

#t1##t2#E|------------------8-------------------------------------11b13-----11--9--11-9-8-9--------|
B|--------------------11b13| ____r11--9-8-9-------------------------------------------11v\-|
G|---------------8------------------------10v| __\-----------------------------------------|
D|-~6v-------/10---------------------------------------------------------------------------|
A|-----------------------------------------------------------------------------------------|
E|-~4v-------------------------------------------------------------------------------------| #/t2##/t1#

#t1##t2#E|-16b18----16------18b20----18----20b21v----|
B|x-------------x-x---------------x----------|
G|--------------x-x--------------------------|
D|-------------------------------------------|
A|-------------------------------------------|
E|-------------------------------------------| #/t2##/t1#

#t1##t2#E|-20---18---20---18h20p18\16--18--16h18p16-15--16--15h16p15-----15----------|
B|-----------------------------------------------------------18------18--16\14|
G|---------------------------------------------------------------------------|
D|---------------------------------------------------------------------------|
A|---------------------------------------------------------------------------|
E|---------------------------------------------------------------------------| #/t2##/t1#

#t1##t2#E|------------------------------------------------------|
B|-\14--16--14h16p14-13--14--13h14p13-11h13p11-9-11b13v-|
G|------------------------------------------------------|
D|------------------------------------------------------|
A|------------------------------------------------------|
E|------------------------------------------------------| #/t2##/t1#

#t1##t2#E|-t15p11p8h11-t15p11-t15p11p8h11-t15p11-t15p11p8h11-|
B|---------------------------------------------------|
G|---------------------------------------------------|
D|---------------------------------------------------|
A|---------------------------------------------------|
E|---------------------------------------------------| #/t2##/t1#

#t1##t2#E|---------------------------------------------------|
B|-t16p13p8h13-t16p13-t16p13p8h11-t16p13-t16p13p8h13-|
G|---------------------------------------------------|
D|---------------------------------------------------|
A|---------------------------------------------------|
E|---------------------------------------------------| #/t2##/t1#

#t1##t2#E|-t16p11p8h11-t15p11p8h11-t14p11p8h11-t15p11p8h11-|
B|-------------------------------------------------|
G|-------------------------------------------------|
D|-------------------------------------------------|
A|-------------------------------------------------|
E|-------------------------------------------------| #/t2##/t1#

#t1##t2#E|--------------------------------------------------|
B|-t18p13p8h13-t17p13t15p13-t15p13p8h13-t16p11p8h11-|
G|--------------------------------------------------|
D|--------------------------------------------------|
A|--------------------------------------------------|
E|--------------------------------------------------| #/t2##/t1#

#t1##t2#E|-t20p16p13h16-t20p16-t20p16p13h16-------|
B|----------------------------------------|
G|----------------------------------------|
D|----------------------------------------|
A|----------------------------------------|
E|----------------------------------------| #/t2##/t1#

#t1##t2#E|-t16p13p8h13-t16p13-t16p13p8h11-t16p13----|
B|------------------------------------------|
G|------------------------------------------|
D|------------------------------------------|
A|------------------------------------------|
E|------------------------------------------| #/t2##/t1#

       A#7                   D#7
An amazing feeling coming through

G#     Cm     C#    Fm  C#  Fm
I was born to love you
 A#m               A#m7       D#   ( D#  C#  C  A#)
With every single beat of my heart
G#     Cm          C#       Fm  C#  Fm
I was born to take care of you
A#m           D#        G#
Every single day of my life

G#     Cm     C#    Fm  C#  Fm
I was born to love you
A#m           D#        G#
Every single day of my life

#t1##t2#E|----------------------20-25-20-------8----------|
B|-13-------13-18-20-21----------21------9--------|
G|----12-13-------------------------22-----10-----|
D|--------------------------------------------10--|
A|------------------------------------------------|
E|------------------------------------------------| #/t2##/t1#

Go, I love you babe 
Yes, I was born to love you

C#9
 I wanna love you , love you, love you 
         G#
I wanna love you 

C#9
I get so lonely, lonely, lonely, lonely 
      G#
Yeah, I want to love you
Yeah, give it to me
Composición de Freddie Mercury
Colaboración y revisión:
2.412 vistas
    • ½ Tono
    • A
    • Bb
    • B
    • C
    • Db
    • D
    • Eb
    • E
    • F
    • F#
    • G
    • Ab
  • Agregar a la lista

    0 comentarios

    Ver todos los comentarios

    ¿Lograste tocar?

    3 Tocaron 1 Aún no

    ¡Graba un video tocando I Was Born To Love You y envíanoslo!

    00:00 / 00:00
    Outros vídeos desta música
    Repetir Calidad Automático
    Outros vídeos desta música
    00:00 / 00:00
    Automático
    OK