Cifra Club

Killer Queen

Queen

Cifrado: Principal (guitarra y guitarra eléctrica)
Já pensou em usar uma coleção de roupas do Cifra Club? Responda as perguntas abaixo e nos ajude nessa missão! →
tono: A
         Cm             Bb
She keeps Moet and Chandon in her pretty cabinet
  Cm                            Bb            Eb
"Let them eat cake," she says, just like Mary Antoinette
            Bb/D        Eb7/C#      G#/C
A built in remedy for Kruschev and Kennedy
    G#m/B    Eb/Bb     Bb11
And any time an invitation you can decline
 G7         Cm          Bb7           Eb
Caviar and cigarettes, well versed in etiquette
    D7           Gm      F7     Bb     Dm/A
Extraordinarily nice.  She's a Killer Queen
 Gm         Dm        Gm              A7    Dm
Gunpowder, gelatine, dynamite with a laser beam
  G7                     C    Bb
Guaranteed to blow your mind, anytime, ooh
 A7         Dm               G7         Cm       C  Bb
Recommended at the price, insatiable an appetite
Wanna try?

( F  Bb/F  F7  Bb/F  F  Bb  F7  Bb/F )

     Cm                      Bb
To avoid complications, she never kept the same address
Cm                    Bb               Eb
In conversation she spoke just like a baroness
                 Bb/D       Eb7/C#         G#/C
Met a man from China, went down to Geisha Minah
  G#m/B         Eb/Bb               Bb11
Then again incidentally if you're that way inclined
              G7             Cm
Perfume came naturally from Paris
     Bb7               Eb
For cars she couldn't care less
 D7                G7     F7     Bb     Dm/A
Fastidious and precise. She's a Killer Queen
 Gm          Dm        Gm              A7    Dm
Gun powder, gelatine, dynamite with a laser beam
  G7                     C    Bb
Guaranteed to blow your mind, anytime, ooh

[Solo]

( A  Dm  A  Dm  G7  Cm  G7  Cm  Eb/F  F  E/F  F )
( Cm  Bb  Cm  Bb  Eb  Bb/D  Eb7/C#  G#/C  G#m/B  Eb/Bb )
( Bb7  Eb/Bb  Bb7 )

E|-----------------------------------------5-6----5---------------|
B|--8b10----pb10----pb10----8--6--5-------------8----6p5----------|
G|-----------------------------------7-------------------7--------|
D|----------------------------------------------------------------|
A|----------------------------------------------------------------|
E|----------------------------------------------------------------|
 
E|--------------3--------------3----------------------------------|
B|--pb8r6--6-------4p3------------4--6--3h4p3---------------------|
G|----------------------5----------------------5------------------|
D|----------------------------------------------------------------|
A|----------------------------------------------------------------|
E|----------------------------------------------------------------|
 
E|----------------------------------------------------------------|
B|----------------------------------------------------------------|
G|----------------5/8----------------5/8--------------------------|
D|----1/3--1/3----5/8----1/3--1/3----5/8--------------------------|
A|----------------------------------------------------------------|
E|----------------------------------------------------------------|

E|----------------------------------------------------------------|
B|-----8----9----10/13-------13--13--11--11b13r11-----------------|
G|-----8----7--------------------------------------12-------------|
D|-----8----9----10-----------------------------------------------|
A|--8-------------------------------------------------------------|
E|----------------------------------------------------------------|

E|----------------------------------------------------------------|
B|--15--15----12--13p12--15p13--16p15--18p16----18b20----18-------|
G|----------------------------------------------------------------|
D|----------------------------------------------------------------|
A|----------------------------------------------------------------|
E|----------------------------------------------------------------|

E|----------15----------------------------------------------------|
B|--16--18------16---pb20r18--16------18--------------------------|
G|--------------------------------16------16--15------------------|
D|----------------------------------------------------------------|
A|----------------------------------------------------------------|
E|----------------------------------------------------------------|

E|-----------------------------------------18---------------------|
B|------16--18b20----18b20--18------18b20------18b20--18b20--18b21|
G|--17------------------------------------------------------------|
D|----------------------------------------------------------------|
A|----------------------------------------------------------------|
E|----------------------------------------------------------------|


        G7            Cm           G7          Cm
Drop of a hat, she's as willing as, playful as a pussycat
      Bb         Eb
Then momentarily out of action
 Bb         Eb            D7           Gm   F
Temporarily out of gas to absolutely drive you
 Bb  F  Bbm         F                        Bb     Dm/A
Wild,  wild. (She's out to get you) She's a Killer Queen
 Gm         Dm        Gm              A7    Dm
Gunpowder, gelatine, dynamite with a laser beam
  G7                     C    Bb
Guaranteed to blow your mind, anytime, ooh
 A7         D7            G7            Cm       C  Bb
Recommended at the price, insatiable an appetite
What a drag!

|Final] F  Bb/F  F7  Bb/F  F  Bb  F7  Bb/F  Eb
Composición de Freddie Mercury
Colaboración y revisión:
11.539 vistas
    • ½ Tono
    • A
    • Bb
    • B
    • C
    • Db
    • D
    • Eb
    • E
    • F
    • F#
    • G
    • Ab
  • Agregar a la lista

    0 comentarios

    Ver todos los comentarios
    00:00 / 00:00
    Outros vídeos desta música
    Repetir Calidad Automático
    Outros vídeos desta música
    00:00 / 00:00
    Automático
    OK