Cifra Club

Liar

Queen

Tablatura: Principal (guitarra)
Tom: D
[Intro] A5  Em

   A5
E|------------------------------------------|
B|------------------------------------------|
G|-2-----2----2-----2---2---2-4-2-----------|
D|-2----------------2-2-----------4-2-------|
A|-0--3b---3b---3b--0-----3-----------------|
E|------------------------------------------|

E|------------------------------------------|
B|------------------------------------------|
G|-2-2----2-----2-----2---------------------|
D|-2----------0-------2--5-5-5-5-5----------|
A|-0---3b---3-----3b--0--0-0-0-0-0----------|
E|------------------------------------------|

E|-------------------2--------------------3-|
B|---------------3-----3--------------------|
G|-------2---2/4---0----------2-2-0-2-------|
D|----------------------------2-2-0-2-------|
A|-0-0-0---0-------------3-0--0-0-0-0-0-0---|
E|------------------------------------------|

E|-2---------10--------------------5--------|
B|-----------7--7---7/8-5-x-x-7/8--5--------|
G|-----------7--7---7/9-6-x-x-7/9--6--------|
D|-----------7----7-------------------------|
A|---3-0-0-0-----------------------0--------|
E|------------------------------------------|

E|---------7------------------7-----9-------|
B|---8-------8---8-----10-------8-----8-----|
G|-----9-------9---9------9-------9-----9---|
D|-------7-----------7------7---------------|
A|------------------------------------------|
E|-0----------------------------------------|
 
                      Em 
E|-10-----9-----7---------------------------|
B|----8-----8-----8-------------------------|
G|------9-----9-----9-----------------------|
D|------------------------------------------|
A|------------------------------------------|
E|--------------------12\-------------------|

[Primeira Parte]

D                     D4 D  D9  D                D4  D  D9  D
  I have sinned dear father,   father, I have sinned
                 D4  D  D9  D
Try and help me father

Won't you let me in?

[Refrão]

 Em  A
Liar
 
Nobody believes me
 Em  A
Liar

Why don't they leave me alone?

[Segunda Parte]

 D
Sire I have stolen, stolen many times

Raised my voice in anger

When I know I never should

[Refrão]

 Em  A 
Liar,  oh, ev'rybody deceives me
 Em  A   
Liar,  why don't you leave me alone

( A5 )

[Terceira Parte]

 D
Liar, I have sailed the seas

Liar, from Mars to Mercury
 A
Liar, I have drunk the wine

Liar, time after time
 Bm
Liar, you're lying to me
 Em
Liar, you're lying to me
 A4              A 
Father, please, forgive me
      Em               A7
You know you'll never leave me
  Em               A7(11)  A7        D
Please will you direct me    in the right way
A5
   Liar, liar, liar, liar
D
  Liar, that's what they keep calling me
D                  A  
  Liar, liar, liar

[Solo] Em  A7  Em  A7(11)  A7  D
       Em  A7  Em  A7(11)  A7  D

[Ponte]

A5
   Listen are you gonna listen

Mama I'm gonna be your slave
All day long
Mama I'm gonna try behave
All day long
Mama I'm gonna be your slave
All day long
I'm gonna serve you till your dying day
All day long
I'm gonna keep you till your dying day
All day long
I'm gonna kneel down by your side and pray
All day long and pray
All day long and pray
All day long and pray
All day long all day long all day long
All day long all day long all day long

( A  D5  A  D5 )
( A  D5  A  D5 )
( A  D5  A  D5 )
( A  D5  A  D5 )

D5             C5             B5              Em  C
   All day long   all day long   all day long

[Refrão]
 
 D
Liar, liar, they never ever let you win

Liar, liar, everything you do is sin
 A5
Liar, nobody believes you
                                        B5
Liar, they bring you down before you begin

Now let me tell you this
                           Gm9                     F  G
Now you know you could be dead before they let you

[Final] D
reproducciones 8
Acordes para:
    Composição: Freddie Mercury Colaboración y revision:
    • Thiago Almeida

    0 comentarios

    mostrar más comentarios

    ¿Conseguiste tocar?

    0 tocaron 0 aún no

    ¡Graba un vídeo tocando Liar y envianoslo!

    00:00 / 00:00
    outros vídeos desta música
    repetir qualidade Automático
    Outros vídeos desta música
    00:00 / 00:00
    Automático
    OK