Cifra Club

Save Me

Queen

Tablatura: Principal (guitarra)
Tom: G
     G     D/F#     Em   D/F#  G
It started off  so well
              C      G/B     Am  G/B
They said we made a perfect pair
    C        D       D4    G
I clothed myself in your glory
          C
And your love
       G/B   G
How I loved you
 C  G   D
How I cried
     Am           G    C      G/B
The years of care and loyalty
      Am             C  G   D
Were nothing but a sham it seems

    D
E|--2-----------------------------------|
B|--3-------3-------7h8p7---------------|
G|--2----2-----2----------7~~-----------|
D|--0-----------------------------------|
A|--------------------------------------|
E|--------------------------------------|

     C     D     D4   G     C
The years belie we lived a lie
   G/B  G   C      G
I love you till I die

 D       A/C#    G/B  D
Save me,save me,save me
   D               E     E7  A  G
I can't face this life alone
 D       A/C#    D/C  G/B  Gm/Bb
Save me,save me,save me
     D             C    G   D
I'm naked and I'm far from home

      G         D/F#      Em   D/F#  G
The slate will soon  be clean
     C       G/B  Am    G/B
I'll erase the memories
     C     D    D4   G        C
To start again with somebody new
       G/B  G
Was it all wasted

    C5   G5   D5
E|--------------------------------|
B|--1----0----3-------------------|
G|--0----0----2-------------------|
D|--2----0----0-------------------|
A|--------------------------------|
E|--------------------------------|
    All  that  love?

   Am              G    C     G/B
I hang my head and I advertise

E|--15--13--12------------------|
B|--17--15--13------------------|
G|------------------------------|
D|------------------------------|
A|------------------------------|
E|------------------------------|

   Am       C   G   D
A soul for sale or rent

E|--15----14h15p---------------|
B|----------------17---15------|
G|-----------------------------|
D|-----------------------------|
A|-----------------------------|
E|-----------------------------|

   C       D    D4   G       C
I have no heart I'm could inside
   G/B  G  C      G
I have no real intent

 D       A/C#    G/B  D
Save me,save me,save me
   D               E   E7  A  G
I can't face this life alone
 D       A/C#   D/C   G/B  Gm/Bb
Save me,save me,oohhh
     D             C    G   Am
I'm naked and I'm far from home

[Solo Guitar 1]

      Am                G           D/F#           Em              G
E|---------------||--------------------------|--0---------------------------|
B|--1p0----------||--0------0----3--------3--|--0-------0--1----3-----------|
G|-------2p0-----||-------0------2------2----|--0----2--0--2----0--0--0--2--|
D|------------2--||-----0-------(4)---4------|--2----4----------0-----0--0--|
A|---------------||--------------------------|------------------------------|
E|---------------||--3-----------2-----------|------------------------------|

       C            G/B        Am
E|--0-------0-------------|---------|--8p7---------------------|
B|--1---0-1------3----0---|----1----|------10-8----------------|
G|--0---0---0----0--0---0-|---2-----|-----------9-7------------|
D|-(2)-----------0--0-----|---2-----|---------------10-9-------|
A|--3-----3------2--------|--0------|--------------------------|
E|------------------------|---------|--------------------------|

[Solo Guitar 2]

       C                  D                         G     D  C         G
E|----------------------------10-----8h10p8--|---7------------------7--|
B|--------------------10---------------------|--------10--8----10------|
G|--9--11--12----9---------------------------|-------------------------|
D|------------------------12---7-------------|-------------------------|
A|---------------------9---------------------|--10-----9--7----10--10--|
E|--8--10--12----8--------10---------9-------|-------------------------|
(1)
E|-------------------------------------------|-------------------------|
B|-------------------------------------------|-------------------------|
G|-------------------------------------------|-------------------------|
D|-------------------------------------------|-------------------------|
A|-------------------------------------------|-------------------------|
E|--8--10-10h12--8----10---5---12---10-------|--10----10--8----12--10--|

[Solo Guitar 1]

             C   G   D                          C
E|---------------------------------------||-------|
B|-------10---8---7----7/8--7h8p7--5--3--||--1----|
G|---9-----------------------------------||-------|
D|---------------------------------------||-------|
A|--------7---5---5------5------------5--||--3----|
E|---7-----------------------------5-----||-------|

[Solo Guitar 3]

E|---------------------------------------||-------|
B|---------------------------------------||-------|
G|---------------------------------------||-------|
D|---------------------------------------||-------|
A|---------------------------------------||-------|
E|---3----8---7---5------5---------2--2--||--0----|

      C        D
Each night I cry
         G           C
I still believe the lie
   G/B  G   C      G
I love you till I die,yeah

[Solo 2]

        D        A/C#        G/B               D
E|----------------------------------------------------|
B|--14b15----14b15r14p12------17b19~r17--15-14-17-15--|
G|----------------------14----------------------------|
D|----------------------------------------------------|
A|----------------------------------------------------|
E|----------------------------------------------------|

                   D                       E
E|--------14-17-14h15-14h15-14---------------------------------------|
B|-----15----------------------15----19b21---b21r19p17---------------|
G|--14---------------------------------------------------------------|
D|-------------------------------------------------------------------|
A|-------------------------------------------------------------------|
E|-------------------------------------------------------------------|

       Am                                G                       (D)
E|--19b21--b22--b21r19-19p17-------------------------------||--------|
B|---------------------------20p19-------------------------||--------|
G|---------------------------------21p19-21p19----------18-||-19~----|
D|---------------------------------------------21p19-21----||--------|
A|---------------------------------------------------------||--------|
E|---------------------------------------------------------||--------|

 D       A/C#    D/C  G/B  Gm/Bb
Save me,save me,save me
   D               C   G   D  G
I can't face this life alone
 D       A/C#    D/C  G/B  Gm/Bb
Save me,save me,huhuuuu
     D             C    G   D
I'm naked and I'm far from home

       D                    D
E|--2--3--2-----0-----------2--|
B|--3--------3-------3-----3---|
G|--2---------------------2----|
D|--0--------------------0-----|
A|-----------------------------|
E|-----------------------------|
reproducciones 6.850
Acordes para:
    Composição: Brian May Colaboración y revision:
    • Marcos Paulo
    • Daniel Rocha
    • Taino Vieira

    0 comentarios

    mostrar más comentarios

    ¿Conseguiste tocar?

    4 tocaron 0 aún no

    ¡Graba un vídeo tocando Save Me y envianoslo!

    00:00 / 00:00
    outros vídeos desta música
    repetir qualidade Automático
    Outros vídeos desta música
    00:00 / 00:00
    Automático
    OK