Cifra Club

Staying Power

Queen

Tab de bajo: Principal
(riff principal)
G|-------------5|--5-5-4-2-4-2-------------------------------------------------------
D|--0-0-0-5-7------------------5-5-3-0-5-3-------------------------------------------
A|-----------------------------------------------------------------------------------
E|-----------------------------------------------------------------------------------

G|----------------------------------2-2-0-0|----------2-2-0-0------------------------
D|--2-2-0|-2-2-2-2-2-0|-2-2-2-2-0-0--------|--2-2-0-0--------------------------------
A|-----------------------------------------------------------------------------------
E|-----------------------------------------------------------------------------------

(riff 3)
G|----7-5--|-7-7-5-5--|--7-5--|-7-7-5-5--|-------------------------------------------
D|--------7|---------7|------7|---------7|-------------------------------------------
A|-----------------------------------------------------------------------------------
E|-----------------------------------------------------------------------------------

(riff 4)
G|---------------6-|-----------6-----------------------------------------------------
D|---6-6-6-6-6-6---|-6-6-6-6-6-------------------------------------------------------
A|-----------------------------------------------------------------------------------
E|-----------------------------------------------------------------------------------

(riff 5)
G|------4-6-8-6-4--------------------------------------------------------------------
D|--5-7------------------------------------------------------------------------------
A|-----------------------------------------------------------------------------------
E|-----------------------------------------------------------------------------------

(riff 6)
G|---8-6-----------------------------------------------------------------------------
D|-------8-6-4-----------------------------------------------------------------------
A|-----------------------------------------------------------------------------------
E|-----------------------------------------------------------------------------------

(riff 7)
G|--8-6--|-8-8-6-6-------------------------------------------------------------------
D|------7|---------7-----------------------------------------------------------------
A|-----------------------------------------------------------------------------------
E|-----------------------------------------------------------------------------------

(solo)
G|--8-6---------------7-9-10-9-10|--8-6----------------7-9-10-9-10|-7-9-10-9-10------
D|------8-8-6--5-5-----------------------8-8-6--5-5----------------------------------
A|-----------------7--------------------------------7--------------------------------
E|-----------------------------------------------------------------------------------

G|---7-9-10-9-10-9----9-6|--7-9-10-9-10|-7-9-10-9-10|--7-9-10-9-10-9-7-14-10-12------
D|-----------------10----------------------------------------------------------------
A|-----------------------------------------------------------------------------------
E|-----------------------------------------------------------------------------------

G|--14-14--12-12--10-10--------------------------------------------------------------
D|------------------------12-12---8-8-8-8-8|-8-8-8-8-8|-8-8-8-8-8|-8-8-8-8-8---------
A|-----------------------------------------------------------------------------------
E|-----------------------------------------------------------------------------------

G|-----------------5-5-5-5-5--------------7------------------------------------------
D|----5-5-5-5-5---------------7-7-7-7-7----------------------------------------------
A|-----------------------------------------------------------------------------------
E|-----------------------------------------------------------------------------------

(ponte)
G|--------|--4-2|---8-6|------4------------------------------------------------------
D|--1--4-2|-----|------|-6-8-----7-5-------------------------------------------------
A|--------|-----|------|-------------------------------------------------------------
E|--------|-----|------|-------------------------------------------------------------

(riff 8)
G|--0-2|-(x7)|-------------0/2-0/2-(x7)-------7---7---7---7------5-5-4-4-2-2-0-0-----
D|----------------------------------------------7---7---7---7------------------------
A|-----------------------------------------------------------------------------------
E|-----------------------------------------------------------------------------------

(final)
G|-------------5|--5-5-4-2-4-2------------------------5|-5-5-4-2-4-2-----------------
D|--0-0-0-5-7------------------5-5-3-0-5-3|-0-0-0-5-7----------------5-5-3-0-5-3-----
A|-----------------------------------------------------------------------------------
E|-----------------------------------------------------------------------------------

G|-----------------------------------------5|----------------------------------------
D|--5-5-3-0-5-3|-5-5-3-0-5-3|--5-3-5-3-5-3-------------------------------------------
A|-----------------------------------------------------------------------------------
E|-----------------------------------------------------------------------------------
reproducciones 79
Composição: Freddie Mercury Colaboración y revision:
  • Marcus Dutra

0 comentarios

mostrar más comentarios

¿Conseguiste tocar?

0 tocaron 0 aún no

¡Graba un vídeo tocando Staying Power y envianoslo!

00:00 / 00:00
outros vídeos desta música
repetir qualidade Automático
Outros vídeos desta música
00:00 / 00:00
Automático
OK