Cifra Club

Stealin

Queen

Tab de bajo: Principal
Transcribed: Andrew B.
B side to the single "Breakthru", from the album "The Miracle"

Decleration:
This file is the authors onw work and represents their interpretation of the 
song. You may only use this file for private study, scholarship, or research


g---------------------
d---------------------
a--4--4---4----------
e----------6---4------
    ^   ^  ^   ^
Repeat this bass line until '40 seconds,

Then play this.

g---------------------
d--4--4---4----------
a----------6---4-----
e---------------------
    ^   ^  ^   ^
Play this for four bars, I think. Then play this;

g---------------------
d--6--6---6----------
a----------8---6-----
e---------------------

Play this for two bars, then return to the first pattern.

Its pretty easy- 'It's the only way that I know'

Andy
reproducciones 36
Composição: Queen

0 comentarios

mostrar más comentarios

¿Conseguiste tocar?

1 tocaron 0 aún no

¡Graba un vídeo tocando Stealin y envianoslo!

00:00 / 00:00
outros vídeos desta música
repetir qualidade Automático
Outros vídeos desta música
00:00 / 00:00
Automático
OK