Cifra Club

Stone Cold Crazy

Queen

Tablatura: Principal (guitarra)
Tom: E
[Intro] F  Bb

E|----------------------------------------------------|
B|----------------------------------------------------|
G|----------------------------------------------------|
D|----------------------------------------------------|
A|----------------------------------------------------|
E|-7~-------------------------------------------------|

   F                Bb
E|----------------------------------------------------|
B|----------------------------------------------------|
G|------------------3---------------------------------|
D|------------------3---------------------------------| (3x)
A|------------------1--------------1-3-3-3--2-3-4-5---|
E|-1h3-3-3--3-3-3----------1h3-3-3--------------------|

E|----------------------------------------------------|
B|----------------------------------------------------|
G|-----------------------------------3-5-5-5--4-5-6-7-|
D|-3h5-5-5---5-3-0---------3h5-5-5-5------------------|
A|-----------------1----------------------------------|
E|----------------------------------------------------|

[Primeira Parte]

Sleeping very soundly on a saturday morning

I was dreaming I was al capone

There's a rumour going round

Gotta clear outa town

I'm smelling like a dry fish bone

Here come the law gonna break down the door

Gonna carry me away once more

Never never I never want it anymore

Gotta get away from this stone cold floor
  C                       Bb
Crazy, stone cold crazy, you know

  F                Bb
E|----------------------------------------------------|
B|----------------------------------------------------|
G|------------------3---------------------------------|
D|------------------3---------------------------------| (2x)
A|------------------1--------------1-3-3-3--2-3-4-5---|
E|-1h3-3-3--3-3-3----------1h3-3-3--------------------|

[Solo] B

   F                Bb
E|----------------------------------------------------|
B|----------------------------------------------------|
G|------------------3---------------------------------|
D|------------------3---------------------------------| (2x)
A|------------------1--------------1-3-3-3--2-3-4-5---|
E|-1h3-3-3--3-3-3----------1h3-3-3--------------------|

[Segunda Parte]

Rainy afternoon I gotta blow a typhoon
                                     C
And I'm playing on my slide trombone
           
Anymore anymore cannot take it anymore
 Bb
Gotta get away from this stone cold floor
  Bb
Crazy, stone cold crazy, you know

   F                Bb
E|----------------------------------------------------|
B|----------------------------------------------------|
G|------------------3---------------------------------|
D|------------------3---------------------------------| (2x)
A|------------------1--------------1-3-3-3--2-3-4-5---|
E|-1h3-3-3--3-3-3----------1h3-3-3--------------------|

[Solo] B

   F                Bb
E|----------------------------------------------------|
B|----------------------------------------------------|
G|------------------3---------------------------------|
D|------------------3---------------------------------| (2x)
A|------------------1--------------1-3-3-3--2-3-4-5---|
E|-1h3-3-3--3-3-3----------1h3-3-3--------------------|

[Terceira Parte]

Walking down the street

Shooting people that I meet

With my rubber tommy water gun

Here come the deputy

He's gonna come and get me

I gotta get me up and run

They got the sirens loose

I ran right outa juice

They're gonna put me in a cell

If I can't go to heaven

Will they let me go to hell?
  Bb                      G
Crazy, stone cold crazy, you know
reproducciones 233
Acordes para:

    0 comentarios

    mostrar más comentarios

    ¿Conseguiste tocar?

    0 tocaron 0 aún no

    ¡Graba un vídeo tocando Stone Cold Crazy y envianoslo!

    00:00 / 00:00
    outros vídeos desta música
    repetir qualidade Automático
    Outros vídeos desta música
    00:00 / 00:00
    Automático
    OK