Cifra Club

We Are The Champions

Queen

Cifrado: Principal (guitarra y guitarra eléctrica)
tono: Cm
[Primeira Parte] 

              Cm  Gm7/C
I've paid my dues
            Cm  Gm7/C
Time after time
              Cm      Gm7/C
I've done my sentence
                   Cm  Gm7/C
But committed no crime
            Eb   Ab/Eb
And bad mistakes
             Eb  Ab/Eb
I've made a few
              Eb
I've had my share of sand
 Bb/D         Cm
Kicked in my face
    F            Bb
But I've come through
                  Bb7(4/9)
And we mean to go on
                  C
And on and on and on

[Refrão] 

[Tab - Riff 1]

E|------------------------------------------|
B|-------------1----------------------------|
G|-3-----------2----------------------------|
D|-3-----------1--0-------------------------|
A|-1--1-0-----------------------------------|
E|--------3-2-------------------------------|

[Tab - Riff 2]

E|------------------------------------------|
B|------------------------------------------|
G|------------------------------------------|
D|--------5\--------------------------------|
A|----4-7-----------------------------------|
E|-6----------------------------------------|

 F           Am             Dm   Bb  C
We are the champions, my friends
     F             Am
And we'll keep on fighting
         Bb  F#°  Riff 1
Till the end
 Gm          G4(6)
We are the champions
 Bbm               Riff 2
We are the champions
 F           Eb9/G
No time for losers
        Ab6         Bb
'Cause we are the champions
Cm7(11)         Fm   Gm7/F
        Of the world

( Fm  Gm7/F  Fm  Gm7/C )

[Segunda Parte] 

               Cm  Gm7/C
I've taken my bows
                Cm   Gm7/C
And my curtain calls
                Cm
You brought me fame and fortune
                     Gm7/C
And everything that goes with it
            Cm  Gm7/C
I thank you all
                         Eb   Ab/Eb
But it's been no bed of roses
              Eb   Ab/Eb
No pleasure cruise
                  Eb
I consider it a challenge
             Bb/D       Cm
Before the whole human race
      F            Bb
And I ain't gonna lose
                  Bb7(4/9)
And we mean to go on
                  C
And on and on and on

[Refrão Final] 

[Tab - Solo]

Parte 1 de 10
E|------------------------------------------|
B|-9b11~-9b11~-9b11~-11b13~-11-8------------|
G|-------------------------------9----------|
D|---------------------------------10-------|
A|------------------------------------8~\---|
E|------------------------------------------|

Parte 2 de 10
E|---------10-------------------------------|
B|-13b15~-----10-13b15~---------------------|
G|------------------------------------------|
D|------------------------------------------|
A|------------------------------------------|
E|------------------------------------------|

Parte 3 de 10
E|-10---------------------------------------|
B|----13-10---------------------------------|
G|----------12b14-12-10---------------------|
D|----------------------12-10~\-------------|
A|------------------------------------------|
E|------------------------------------------|

Parte 4 de 10
E|------------------------------------------|
B|------------8-10-11~------11-13-14-13-11\-|
G|-7h8p7p5h7~----------10~------------------|
D|------------------------------------------|
A|------------------------------------------|
E|------------------------------------------|

Parte 5 de 10
E|------------------------------------------|
B|-----6\-----6\-----6\--------6-----6-6~---|
G|-/5~----/5~----/5~----/5-/5~---5-5--------|
D|------------------------------------------|
A|------------------------------------------|
E|------------------------------------------|

Parte 6 de 10
E|------------------------------------------|
B|-13b15-13b15~-b15r13-11-------------------|
G|------------------------12~\--------------|
D|------------------------------------------|
A|------------------------------------------|
E|------------------------------------------|

Parte 7 de 10
E|-\17b18-b18r17-18-------------------------|
B|------------------20b22~-b22r20p18--------|
G|------------------------------------------|
D|------------------------------------------|
A|------------------------------------------|
E|------------------------------------------|

Parte 8 de 10
E|------------------------------------------|
B|-20b22-b22r20p18--20b22~-b22r20p18--------|
G|------------------------------------------|
D|------------------------------------------|
A|------------------------------------------|
E|------------------------------------------|

Parte 9 de 10
E|------------------20b22-------------------|
B|-20b21~-b21r20p18-------------------------|
G|------------------------------------------|
D|------------------------------------------|
A|------------------------------------------|
E|------------------------------------------|

Parte 10 de 10
E|-20-18-17---------------------------------|
B|----------20b22-20-18---------------------|
G|----------------------19-17~--------------|
D|------------------------------------------|
A|------------------------------------------|
E|------------------------------------------|

 F           Am             Dm   Bb  C
We are the champions, my friends
     F             Am
And we'll keep on fighting
       Bb    F#°  Riff 1
Till the end
 Gm          G4(6)
We are the champions
 Bbm               Riff 2
We are the champions
 F           Eb9/G
No time for losers
        Ab6         Bb
'Cause we are the champions
Cm7(11)         F
        Of the world

 F           Am             Dm   Bb  C
We are the champions, my friends
     F             Am
And we'll keep on fighting
 Bb          F#°  Riff 1
Till the end
 Gm          G4(6)
We are the champions
 Bbm               Riff 2
We are the champions
 F           Eb9/G
No time for losers
        Ab6         Bb      Cm7(11)
'Cause we are the champions
00:00 / 00:00
Otros videos de esta canción
Repetir
Otros videos de esta canción
Composición de Freddie Mercury
70.505 vistas
    • ½ Tono
    • Am
    • Bbm
    • Bm
    • Cm
    • C#m
    • Dm
    • Ebm
    • Em
    • Fm
    • F#m
    • Gm
    • G#m
  • Agregar a la lista

    0 comentarios

    Ver todos los comentarios

    ¿Lograste tocar?

    71 Tocaron 38 Aún no

    ¡Graba un video tocando We Are The Champions y envíanoslo!

    00:00 / 00:00
    OK