Cifra Club

Cheia de Manias

Raça Negra

Chords: Principal (acoustic and electric guitars)
tone: Gm
[Intro 1] Gm  Eb  Cm  Db°  D7/F# 
          Gm  Eb  Cm  Db°  D7/F# 

[Intro 2] F  Gm  F
          Gm  F  Eb  F 
          Gm  F  Eb  F

[Tab - Solo 2x]

Parte 1 de 4
E|------------------------------------------|
B|------------------------------------------|
G|-3-3-2---3--3-3-2---3-2-------------------|
D|-------5----------5-----5-----------------|
A|------------------------------------------|
E|------------------------------------------|

Parte 2 de 4
E|------------------------------------------|
B|------------------------------------------|
G|-2----------------------------------------|
D|---5-3-5--3---3------3---3-5--------------|
A|------------5---5--5---5------------------|
E|------------------------------------------|

Parte 3 de 4
E|------------------------------------------|
B|--------------------3---------------------|
G|-3-3-2---3--3-3-2-----5-3-3---------------|
D|-------5----------5-----------------------|
A|------------------------------------------|
E|------------------------------------------|

Parte 4 de 4
E|------------------------------------------|
B|------------------------------------------|
G|-5-2-2-2--2-5-2-2-2--2--------------------|
D|-----------------------3---3-5------------|
A|-------------------------5----------------|
E|------------------------------------------|

[Primeira Parte]

Gm
   Cheia de manias
F
  Toda dengosa
Gm
   Menina bonita
F
  Sabe que é gostosa

Gm
   Com esse seu jeito
                   F
Faz o que quer de mim
                  Gm
Domina o meu coração
                              F
Eu fico sem saber o que fazer

Quero te deixar
           Gm        F
Você não quer, não quer

[Refrão]

           Gm
Então me ajude a segurar
      F
Essa barra que é gostar de você
           Gm
Então me ajude a segurar
      F                       
Essa barra que é gostar de você

  Gm
Hiê!
              F
Didididididiê
            Gm
Didididididiê ê ê
              F
Didididididiê

[Segunda Parte]

Gm                              
   Estou na sua casa quero ir pro 
   F
Cinema você não gosta
Gm                             F
   Um motelzinho você fecha a porta

[Refrão]

           Gm
Então me ajude a segurar
      F
Essa barra que é gostar de você
           Gm
Então me ajude a segurar
      F                      
Essa barra que é gostar de você

  Gm
Hiê!
              F
Didididididiê
            Gm
Didididididiê ê ê
              F
Didididididiê

[Solo] Gm  F  Eb  F
       Gm  F  Eb  F

[Primeira Parte]

Gm
   Cheia de manias
F
  Toda dengosa
Gm
   Menina bonita
F
  Sabe que é gostosa

Gm
   Com esse seu jeito
                   F
Faz o que quer de mim
                  Gm
Domina o meu coração
                              F
Eu fico sem saber o que fazer

Quero te deixar
           Gm        F
Você não quer, não quer

[Refrão]

           Gm
Então me ajude a segurar
      F
Essa barra que é gostar de você
           Gm
Então me ajude a segurar
      F                       
Essa barra que é gostar de você

  Gm
Hiê!
              F
Didididididiê
            Gm
Didididididiê ê ê
              F
Didididididiê

[Segunda Parte]

Gm                              
   Estou na sua casa quero ir pro 
   F
Cinema você não gosta
Gm                             F
   Um motelzinho você fecha a porta

[Refrão]

           Gm
Então me ajude a segurar
      F
Essa barra que é gostar de você
           Gm
Então me ajude a segurar
      F                      
Essa barra que é gostar de você

  Gm
Hiê!
              F
Didididididiê
            Gm
Didididididiê ê ê
              F
Didididididiê

            Gm
Didididididiê ê ê
              F
Didididididiê
            Gm
Didididididiê ê ê
              F
Didididididiê

[Final] Gm  F  Eb  F
        Gm  F  Eb  F  Gm
00:00 / 00:00
Other videos of this song
Repeat
Other videos of this song
Composed by Luiz Carlos
22.060 views
  • Simplify chords
    • ½ Tone
    • Am
    • Bbm
    • Bm
    • Cm
    • C#m
    • Dm
    • Ebm
    • Em
    • Fm
    • F#m
    • Gm
    • G#m
  • Add to list
    00:00 / 00:00
    OK