Cifra Club

Cheia de Manias

Raça Negra

Tablatura: Principal (guitarra)
Tom: Gm
[Intro] Gm  F  Eb  F
        Gm  F  Eb  F
 
E|------------------------------------------|
B|------------------------------------------|
G|-3-3-2---3--3-3-2---3-2-------------------|
D|-------5----------5-----5-----------------|
A|------------------------------------------|
E|------------------------------------------|

E|------------------------------------------|
B|------------------------------------------|
G|-2----------------------------------------|
D|---5-3-5--3---3------3---3-5--------------|
A|------------5---5--5---5------------------|
E|------------------------------------------|

E|------------------------------------------|
B|--------------------3---------------------|
G|-3-3-2---3--3-3-2-----5-3-3---------------|
D|-------5----------5-----------------------|
A|------------------------------------------|
E|------------------------------------------|

E|------------------------------------------|
B|------------------------------------------|
G|-5-2-2-2--2-5-2-2-2--2--------------------|
D|-----------------------3---3-5------------|
A|-------------------------5----------------|
E|------------------------------------------|

[Primeira Parte]

Gm
  Cheia de manias
F
  Toda dengosa
Gm
  Menina bonita
F
  Sabe que é gostosa

Gm
  Com esse seu jeito
                   F
Faz o que quer de mim
                  Gm
Domina o meu coração
                           F
Eu fico sem saber o que fazer

Quero te deixar
           Gm        F
Você não quer, não quer

[Refrão]

           Gm
Então me ajude a segurar
      F
Essa barra que é gostar de você
           Gm
Então me ajude a segurar
      F                       
Essa barra que é gostar de você

  Gm
Hiê!
        F
Didididiê
          Gm
Didididiê ê ê
        F
Didididiê

[Segunda Parte]

Gm                              
  Estou na sua casa quero ir pro 
   F
Cinema você não gosta
Gm                           F
  Um motelzinho você fecha a porta

[Refrão]

           Gm
Então me ajude a segurar
      F
Essa barra que é gostar de você
           Gm
Então me ajude a segurar
      F                      
Essa barra que é gostar de você

  Gm
Hiê!
        F
Didididiê
          Gm
Didididiê ê ê
        F
Didididiê

[Solo] Gm  F  Eb  F
       Gm  F  Eb  F

E|------------------------------------------|
B|------------------------------------------|
G|-3-3-2---3--3-3-2---3-2-------------------|
D|-------5----------5-----5-----------------|
A|------------------------------------------|
E|------------------------------------------|

E|------------------------------------------|
B|------------------------------------------|
G|-2----------------------------------------|
D|---5-3-5--3---3------3---3-5--------------|
A|------------5---5--5---5------------------|
E|------------------------------------------|

E|------------------------------------------|
B|--------------------3---------------------|
G|-3-3-2---3--3-3-2-----5-3-3---------------|
D|-------5----------5-----------------------|
A|------------------------------------------|
E|------------------------------------------|

E|------------------------------------------|
B|------------------------------------------|
G|-5-2-2-2--2-5-2-2-2--2--------------------|
D|-----------------------3---3-5------------|
A|-------------------------5----------------|
E|------------------------------------------|

[Primeira Parte]

Gm
  Cheia de manias
F
  Toda dengosa
Gm
  Menina bonita
F
  Sabe que é gostosa

Gm
  Com esse seu jeito
                   F
Faz o que quer de mim
                  Gm
Domina o meu coração
                           F
Eu fico sem saber o que fazer

Quero te deixar
           Gm        F
Você não quer, não quer

[Refrão]

           Gm
Então me ajude a segurar
      F
Essa barra que é gostar de você
           Gm
Então me ajude a segurar
      F                       
Essa barra que é gostar de você

  Gm
Hiê!
        F
Didididiê
          Gm
Didididiê ê ê
        F
Didididiê

[Segunda Parte]

Gm                              
  Estou na sua casa quero ir pro 
   F
Cinema você não gosta
Gm                           F
  Um motelzinho você fecha a porta

[Refrão]

           Gm
Então me ajude a segurar
      F
Essa barra que é gostar de você
           Gm
Então me ajude a segurar
      F                      
Essa barra que é gostar de você

  Gm
Hiê!
        F
Didididiê
          Gm
Didididiê ê ê
        F
Didididiê

          Gm
Didididiê ê ê
        F
Didididiê
          Gm
Didididiê ê ê
        F
Didididiê
          Gm
Didididiê ê ê
        F
Didididiê

[Final] Gm  F  Eb  F
        Gm  F  Eb  F  Gm

E|------------------------------------------|
B|------------------------------------------|
G|-3-3-2---3--3-3-2---3-2-------------------|
D|-------5----------5-----5-----------------|
A|------------------------------------------|
E|------------------------------------------|

E|------------------------------------------|
B|------------------------------------------|
G|-2----------------------------------------|
D|---5-3-5--3---3------3---3-5--------------|
A|------------5---5--5---5------------------|
E|------------------------------------------|

E|------------------------------------------|
B|--------------------3---------------------|
G|-3-3-2---3--3-3-2-----5-3-3---------------|
D|-------5----------5-----------------------|
A|------------------------------------------|
E|------------------------------------------|

E|------------------------------------------|
B|------------------------------------------|
G|-5-2-2-2--2-5-2-2-2--2--------------------|
D|-----------------------3---3-5------------|
A|-------------------------5----------------|
E|------------------------------------------|
reproducciones 2.167
Acordes para:
    Composição: Luiz Carlos Colaboración y revision:

    0 comentarios

    mostrar más comentarios

    ¿Conseguiste tocar?

    71 tocaron 13 aún no

    ¡Graba un vídeo tocando Cheia de Manias y envianoslo!

    00:00 / 00:00
    outros vídeos desta música
    repetir qualidade Automático
    Outros vídeos desta música
    00:00 / 00:00
    Automático
    OK