Cifra Club

Cheia de Manias

Raça Negra

Cifrado: Principal (guitarra y guitarra eléctrica)
Selo Cifra Club: esta cifra foi revisada para atender aos critérios oficiais da nossa Equipe de Qualidade.
tono: Gm
[Intro] Gm  Eb  Cm  C#°  D7

[Dedilhado - Intro]

Parte 1 de 5
   Gm
E|---------3----------------3---------------|
B|-----3-------3--------3-------3-----------|
G|---3---3---3---3----3---3---3---3---------|
D|-5----------------5-----------------------|
A|------------------------------------------|
E|------------------------------------------|

Parte 2 de 5
   Eb
E|------------------------------------------|
B|---------8----------------8---------------|
G|-----8-------8--------8-------8-----------|
D|---8---8---8---8----8---8---8---8---------|
A|-6----------------6-----------------------|
E|------------------------------------------|

Parte 3 de 5
   Cm                   C#°
E|---------8----------------9--7h8h9--------|
B|-----8-------8--------8-------------------|
G|---8---8---8---8----9---9-----------------|
D|------------------------------------------|
A|------------------------------------------|
E|-8----------------9-----------------------|

Parte 4 de 5
E|-10p8-------------------------------------|
B|------11-10-------------------------------|
G|------------11-8-7------------------------|
D|-0-----------------10-8-7-----------------|
A|--------------------------9-6-5-----------|
E|------------------------------------------|

Parte 5 de 5
   D7
E|-10-10-10-10------------------------------|
B|-10-10-10-10------------------------------|
G|-11-11-11-11------------------------------|
D|-0--0--0--0-------------------------------|
A|------------------------------------------|
E|------------------------------------------|

[Tab - Solo Intro]

Parte 1 de 4
E|-----------------------------------------------------|
B|-11-11-11-11-11-10------------10---------------------|
G|---------------------10-10-10----10------------------|
D|-----------------------------------------------------|
A|-----------------------------------------------------|
E|-----------------------------------------------------|

Parte 2 de 4
E|----------10-----------------------------------------|
B|-13-13-13----13-11-10--------------------------------|
G|----------------------12-----------------------------|
D|-----------------------------------------------------|
A|-----------------------------------------------------|
E|-----------------------------------------------------|

Parte 3 de 4
E|-------------------------------10-10----10-----------|
B|-11-11-11-11-11-10-------------------13--------------|
G|---------------------10-10-10------------------------|
D|-----------------------------------------------------|
A|-----------------------------------------------------|
E|-----------------------------------------------------|

Parte 4 de 4
E|-10-10----10-----------------------------------------|
B|-------13------12------------------------------------|
G|-----------------------------------------------------|
D|-----------------------------------------------------|
A|-----------------------------------------------------|
E|-----------------------------------------------------|

[Tab - Solo] 

Parte 1 de 4
E|-----------------------------------------------------|
B|-11-11-10----11---11-11-10----11-10----10------------|
G|----------12---------------12-------12---------------|
D|-----------------------------------------------------|
A|-----------------------------------------------------|
E|-----------------------------------------------------|

Parte 2 de 4
E|-----------------------------------------------------|
B|-----------------------------------------------------|
G|-12-10-12--10----10-------------10----10-12----------|
D|--------------12-------12-12-12----12----------------|
A|-----------------------------------------------------|
E|-----------------------------------------------------|

Parte 3 de 4
E|------------------------------10---------------------|
B|-11-11-10----11---11-11-10-------11-11-11-13-10-10-10|
G|----------12---------------12------------------------|
D|-----------------------------------------------------|
A|-----------------------------------------------------|
E|-----------------------------------------------------|

Parte 4 de 4
E|-----------------------------------------------------|
B|-10-13-10-10-10--------------------------------------|
G|--------------------10----10-12----------------------|
D|-----------------12----12----------------------------|
A|-----------------------------------------------------|
E|-----------------------------------------------------|

[Primeira Parte]

Gm
   Cheia de manias
F
  Toda dengosa
Gm
   Menina bonita
F
  Sabe que é gostosa
Gm
   Com esse seu jeito
                   F
Faz o que quer de mim
                  Gm
Domina o meu coração
                              
Eu fico sem saber o que fazer
F
  Quero te deixar
           Gm        F
Você não quer, não quer

[Refrão]

           Gm
Então me ajude a segurar
      F
Essa barra que é gostar de você
           Gm
Então me ajude a segurar
      F                       
Essa barra que é gostar de você

  Gm
Hiê!
              F
Didididididiê
            Gm
Didididididiê ê ê
              F
Didididididiê

[Segunda Parte]

Gm                              
   Estou na sua casa quero ir pro 
   F
Cinema você não gosta
Gm                             F
   Um motelzinho você fecha a porta

[Refrão]

           Gm
Então me ajude a segurar
      F
Essa barra que é gostar de você
           Gm
Então me ajude a segurar
      F                      
Essa barra que é gostar de você

  Gm
Hiê!
              F
Didididididiê
            Gm
Didididididiê ê ê
              F
Didididididiê

[Solo] Gm  F  Eb  F
       Gm  F  Eb  F

[Primeira Parte]

Gm
   Cheia de manias
F
  Toda dengosa
Gm
   Menina bonita
F
  Sabe que é gostosa

Gm
   Com esse seu jeito
                   F
Faz o que quer de mim
                  Gm
Domina o meu coração
                              
Eu fico sem saber o que fazer
F
 Quero te deixar
           Gm        F
Você não quer, não quer

[Refrão]

           Gm
Então me ajude a segurar
      F
Essa barra que é gostar de você
           Gm
Então me ajude a segurar
      F                       
Essa barra que é gostar de você

  Gm
Hiê!
              F
Didididididiê
            Gm
Didididididiê ê ê
              F
Didididididiê

[Segunda Parte]

Gm                              
   Estou na sua casa quero ir pro 
   F
Cinema você não gosta
Gm                             F
   Um motelzinho você fecha a porta

[Refrão]
           Gm
Então me ajude a segurar
      F
Essa barra que é gostar de você
           Gm
Então me ajude a segurar
      F                      
Essa barra que é gostar de você
  Gm
Hiê!
              F
Didididididiê
            Gm
Didididididiê ê ê
              F
Didididididiê
            Gm
Didididididiê ê ê
              F
Didididididiê
            Gm
Didididididiê ê ê
              F
Didididididiê

[Final] Gm  F  Eb  F
        Gm  F  Eb  F  Gm
Otros videos de esta canción
    2.209.103 exhibiciones
    • Simplificar cifrado
      • ½ Tono
      • Am
      • Bbm
      • Bm
      • Cm
      • C#m
      • Dm
      • Ebm
      • Em
      • Fm
      • F#m
      • Gm
      • G#m
    • Agregar a la lista

    Afinación de cifrado

    Afinador online

      Capítulos
      • Apresentação
      • Tocando a Música
      • Acordes da Música
      • Tocando a Primeira Parte
      • Ensinando o Ritmo da Música
      • Acordes da Melodia da Intro
      • Ensinando o Dedilhado da Intro
      • Tocando o Solo da Intro
      • Ensinando o Solo da Intro
      • Tocando o Solo 2 da Música
      • Ensinando o Solo 2 da Música
      • Encerramento
      OK