Cifra Club

Você Não Sabe de Mim

Raça Negra

Cifrado: Principal (guitarra y guitarra eléctrica)
tono: D
Introdução: D F#m G A D F#m Gm Bb D A  

:Solo
e|------3/5-3-2-----3/5-5--2-3-3/10-10--9-10-10/12-10-9-10-5--|
B|--------------5-3-------------------------------------------|
G|------------------------------------------------------------|

e|-------5/14--14-12-10-9/14-17-14----------------------------|
B|------------------------------------------------------------|
G|-----------------------*Solo-por-Leandro-Cardoso------------|

e|---------------------------------------------------------17-|
B|--15-15-15-15-14-15--------------------------------14-15----|
G|--------------------15-14-15--12----12-14-14/15-14----------|
D|---------------------------------12-------------------------|

D                                         A
.....Quem é você para dizer o que diz por aí
Bm                                              A
.....Pra julgar o que sinto do fundo do meu coração
G                                  D
É ..... você não sabe da minha tristeza
          A    G               D
Você não sabe..... não sabe de mim...
 D                           A
.....Você duvida do meu sentimento
Bm                                                A
.....Diz que sou insensível, de pedras ou coisas assim
G                                 D
É.... você não sabe da minha tristeza.....
          A    G                D
Você não sabe..... não sabe de mim...
A                              Bm
Diz que não ligo pro seu sentimento
    A
E aí
                             Bm
Diz que não presto, a todo momento
       G
Por aí 
                    A
O que é que eu vou fazer?
 D                      D7
Pra te abrir os olhos e ver 
   G            A           D
Aquele cara que sempre te amou
     Bm              G              A
Que te ama e que te adora e que te quer
D            D7
E às vezes chora
     G        A            D
Se desespera e só você não vê
   Bm            G            A
O grande amor que sinto por você 

-Solo

Intr: D F#m G A D F#m Gm Bb D A
00:00 / 00:00
Otros videos de esta canción
Repetir
Otros videos de esta canción
Composición de Elias Muniz / Luiz Carlos
Colaboración y revisión:
  • leandro cardoso
  • Filipe Dalpiaz
1.307 vistas
    • ½ Tono
    • A
    • Bb
    • B
    • C
    • Db
    • D
    • Eb
    • E
    • F
    • F#
    • G
    • Ab
  • Agregar a la lista

    0 comentarios

    Ver todos los comentarios

    ¿Lograste tocar?

    6 Tocaron 3 Aún no

    ¡Graba un video tocando Você Não Sabe de Mim y envíanoslo!

    00:00 / 00:00
    OK